PrimaNota.ru - самый крупный в мире бесплатный архив песенных текстов, аккордов, табулатур и нот


Orca Team - Shane - бас-таба, видео

Регистрация Запомнить меня
Войти через:  Facebook Google Twitter Vk Yandex Mail.ru

Orca Team - Shane - бас-таба, видео

Печатать
Просмотров: 148
Уроки эстрадного вокала в Санкт-Петербурге
-------------------------------------------------------------------------------
                            Shane - ORCA TEAM
-------------------------------------------------------------------------------
Tabbed by: sqggqs
E-mail: 

Tuning:standard

you can do the slide from 8 to 13 at the beginning
G|---------------------------------------------------------------------------|
D|--------------8-10-8-------------------------------------------------------|
A|--10-8----8-8--------10-8-----78910-----7875-------------------------------| x2
E|-------10-----------------8-8-------8-8------------------------------------|

G|---------------------------------------------------------------------------|
D|---------------------------------------------------------------------------|
A|--10-8-----78910-----7875--------------------------------------------------| x2
E|-------8-8-------8-8-------------------------------------------------------|

G|---------------------------------------------------------------------------|
D|-----8-10-8------8-10-8------8-10-8--------8-10-8--------------------------|
A|--10--------10-8--------10-7--------10-8----------10-----------------------| x2
E|-----------------------------------------8---------------------------------|

G|--------------------------8-----------8------------------------------------|
D|----5-3-------5-3-----------10-8--8-----10-8-10----------------------------|
A|--------5--5-------5--5----------------------------------------------------| x2
E|--3---------3-----------8-----------8--------------------------------------|

G|---------------------------------------------------------------------------|
D|---------------------------------------------------------------------------|
A|--10-8-----78910-----7875--------------------------------------------------| x2
E|-------8-8-------8-8-------------------------------------------------------|

G|---------------------------------------------------------------------------|
D|-----8-10-8------8-10-8------8-10-8--------8-10-8--------------------------|
A|--10--------10-8--------10-7--------10-8----------10-----------------------| x2
E|-----------------------------------------8---------------------------------|

G|---------------------------------------------------------------------------|
D|---------------------------------------------------------------------------|
A|--101010101010-8--------8-101010101010-8--------8-101010101010-8--------8--|
E|-----------------888888------------------888888------------------888888----|

G|---------------------------------------------------------------------------|
D|---------------------------------------------------------------------------|
A|---------------------------------------------------------------------------|
E|--666666-8-101010101010----------------------------------------------------|


G|--------------------------8-----------8------------------------------------|
D|----5-3-------5-3-----------10-8--8-----10-8-10----------------------------|
A|--------5--5-------5--5----------------------------------------------------| x2
E|--3---------3-----------8-----------8--------------------------------------|

G|---------------------------------------------------------------------------|
D|--------------8-10-8-------------------------------------------------------|
A|--10-8----8-8--------10-8-----78910-----7875-------------------------------| x2
E|-------10-----------------8-8-------8-8------------------------------------|

G|---------------------------------------------------------------------------|
D|---------------------------------------------------------------------------|
A|--10-8-7-------------------------------------------------------------------|
E|---------8-6-3-1-8---------------------------------------------------------|

| /  slide up
| \  slide down
| h  hammer-on
| p  pull-off
| ~  vibrato
| +  harmonic
| x  Mute note
===============================================================================
Добавлено: 16.08.2015
Другие материалы по этой песне:
  • Аккорды и текст

Страница создана 16.08.2015
http://primanota.ru/orca-team/shane-chords.htm
Привет, Гость.
Предлагаем пройти революционный курс по гитаре.
Подарок от PrimaNota.Ru, забирай!