PrimaNota.ru - самый крупный в мире бесплатный архив песенных текстов, аккордов, табулатур и нот


Orbit - Rockets - аккорды и текст, таба, видео

Регистрация Запомнить меня
Войти через:  Facebook Google Twitter Vk Yandex Mail.ru

Orbit - Rockets - аккорды и текст, таба, видео

Печатать
Просмотров: 147
Rockets
Orbit




Band: Orbit
Title: Rockets
Album: Libido Speedway
Tuning: Standard

 Transcribed by Brandon Wolfe
                wolfeb@rpi.edu

[Note: Please do not modify this tab without 
 consulting me]
 This should be printed with a fixed font 
 (I recommend using Notepad for Windows)


Notation Used:
   = slide to note
  ^ = bend string 
  x = mute string
  h = hammer on


INTRO:

    Em        F#        G5        
E]-----------------------------------------------
B]-----------------------------------------------
G]----------------------------------------------- 
D]--2-2-2-2---4-4-4-4---5-5-5-5-5-5-5-5----------   [x3]
A]--2-2-2-2---4-4-4-4---5-5-5-5-5-5-5-5----------
E]--0-0-0-0---2-2-2-2---3-3-3-3-3-3-3-3----------

    D
E]--5-5-5--5-5--5-5-5----------------------------
B]--5-5-5--7-7--5-5-5----------------------------
G]--7-7-7--7-7--7-7-7---------------------------- [x4]
D]--7-7-7--7-7--7-7-7----------------------------
A]--5-5-5--5-5--5-5-5----------------------------
E]--5-5-5--5-5--5-5-5----------------------------
    

VERSE:
  
    A (x8)  G (x8)     
E]----------------------------
B]----------------------------
G]---------------------------- 
D]--7-------5-----------------  
A]--7-------5-----------------
E]--5-------3-----------------

    D
E]--5-5-5--5-5--5-5-5----------------------------
B]--5-5-5--7-7--5-5-5----------------------------
G]--7-7-7--7-7--7-7-7---------------------------- [x2]
D]--7-7-7--7-7--7-7-7----------------------------
A]--5-5-5--5-5--5-5-5----------------------------
E]--5-5-5--5-5--5-5-5----------------------------


CHORUS:
   - Just play:
 A (x8)  G (x8)     
E]----------------------------
B]----------------------------
G]---------------------------- 
D]--7-------5-----------------  
A]--7-------5-----------------
E]--5-------3-----------------

    And then play the intro progression

  

************************************************


--------------------------------------------------------------
NOTES:
  Well, there it is. It should be correct, but little D 
  variation thing is probably off. The song's chorus and verses
  sometime intertwine a bit, but all the stuff is there. Enjoy 
  I've got a whole bunch of Orbit tabs in the works, 


Добавлено: 27.02.2014
Вам также может быть интересно:
Другие материалы по этой песне:
  • Аккорды и текст

Страница создана 13.04.2012
http://primanota.ru/orbit/rockets-chords.htm
Привет, Гость.
Предлагаем пройти революционный курс по гитаре.
Подарок от PrimaNota.Ru, забирай!