PrimaNota.ru - самый крупный в мире бесплатный архив песенных текстов, аккордов, табулатур и нот


Orbit - Made Of Wood - аккорды и текст, таба, видео

Регистрация Запомнить меня
Войти через:  Facebook Google Twitter Vk Yandex Mail.ru

Orbit - Made Of Wood - аккорды и текст, таба, видео

Печатать
Просмотров: 166
Уроки эстрадного вокала в Санкт-Петербурге
Made Of Wood
Orbit




Band: Orbit
Title: Made of Wood
Album: La Mano
Tuning: Standard

 Transcribed by Brandon Wolfe
                wolfeb@rpi.edu

[Note: Please do not modify this tab without 
 consulting the author]
 This should be printed with a fixed font 
 (I recommend using Notepad for Windows)


Notation Used:
   = slide to note
  ^ = bend string 
  x = mute string
   

INTRO/VERSE:
    B5      G5      A5        
E]-------------------------------
B]-------------------------------
G]-------------------------------      
D]--9-9-9---5-5-5---7-7-7-7-7-7--
A]--9-9-9---5-5-5---7-7-7-7-7-7--
E]--7-7-7---3-3-3---5-5-5-5-5-5--
    

BRIDGE: (2:50 sec into track)

    B5      A5        
E]-------------------------------
B]-------------------------------
G]-------------------------------      
D]--9-9----7-7-------------------
A]--9-9----7-7-------------------
E]--7-7----5-5-------------------

 [Repeat each chord several times]






    
*************************************************
Song:
----

Intro  
Verse  
Bridge




-----------------------------------------------------------
NOTES:
  Well, that's it. It should all be correct.
  I've got a whole bunch of Orbit tabs in the works, 

Song written by Jeff Lowe Robbins.


Добавлено: 27.01.2014
Другие материалы по этой песне:
  • Аккорды и текст

Страница создана 24.07.2012
http://primanota.ru/orbit/made-of-wood-chords.htm
Привет, Гость.
Предлагаем пройти революционный курс по гитаре.
Подарок от PrimaNota.Ru, забирай!