PrimaNota.ru - самый крупный в мире бесплатный архив песенных текстов, аккордов, табулатур и нот


Орбакайте Кристина - Бежит река (Старые песни о главном) - аккорды и текст, видео

Регистрация Запомнить меня
Войти через:  Facebook Google Twitter Vk Yandex Mail.ru

Орбакайте Кристина - Бежит река (Старые песни о главном) - аккорды и текст, видео

Печатать
Просмотров: 527
Бежит река (Старые песни о главном)
Орбакайте Кристина
Вступление: Gm
                Cm  Cm/d#  A#            F+7/a  D7  Gm
E---------------8-6-5---------2-5-3------------1--------------3--
H-8h11-11-8--------------4------------------3--4--1-4-3-1----
G------------------------4h5------------2h3-3-----2-------------
D--------------------------------------------------------------------
A--------------------------------------------------------------------
E---------------------------------------------------------------------
                       Gm
E---6--5--3--1---3--3-
H--8---5--3--3--4--3-
G--7---5--3--2--3--3-
D------------------------
A------------------------
E------------------------

              Cm D7             Gm Gm/a#
Бежит река,    в тумане тает,
             D# F               A#
Бежит она,    меня дразня
A#/d     Cm        Cm/d#            A#
Ах, кавалеров мне вполне хватает,
                F+7/a         D7    Gm     
 Но нет любви хорошей у меня.
A#/d     Cm        Cm/d#            A#
Ах, кавалеров мне вполне хватает,
                F+7/a         D7    Gm  Gm/a
 Но нет любви хорошей у меня.

Танцую я фокстрот и вальсы,
Пою в кругу я у плетня.
Я не хочу, чтоб кто-то догадался,
Что нет любви хорошей у меня.

Проигрыш: A#/d Cm Cm/d# A#, F+7/a  D7 Gm G#m

         C#m D#7  G#m G#m/h
Стоит береза у опушки
                 E F#              H
Грустит одна на склоне дня.
H/d#    C#m    C#m/e         H
Я расскажу березе, как подружке
                F#+7/a#     D#7  G#m     
Что нет любви хорошей у меня.

Проигрыш: H/d# C#m C#m/e H

                F#+7/a#     D#7  G#m     
Что нет любви хорошей у меня.

              C#m D#7         G#m G#m/h
Все парни спят и спят девчата
             E F#            H
Уже в селе нет ни огня
H/d#    C#m    C#m/e       H
Ах, я сама, наверно, виновата,
                F#+7/a#     D#7  G#m     
Что нет любви хорошей у меня.
H/d#    C#m    C#m/e       H
Ах, я сама, наверно, виновата,
                F#+7/a#     D#7  G#m     
Что нет любви хорошей у меня.

Заключение: 
                       G#m
E---7--6--4--2---4--4-
H--9---6--4--4--5--4-
G--8---6--4--3--4--4-
D------------------------
A------------------------
E------------------------

Добавлено: 30.12.2013
Другие материалы по этой песне:
  • Аккорды и текст

Страница создана 30.12.2013
http://primanota.ru/orbakaite-kristina/bezhit-reka-starye-pesni-o-glavnom-chords.htm
Привет, Гость.
Предлагаем пройти революционный курс по гитаре.
Подарок от PrimaNota.Ru, забирай!