PrimaNota.ru - самый крупный в мире бесплатный архив песенных текстов, аккордов, табулатур и нот


Orange Juice - Rip It Up - аккорды и текст, таба, видео

Регистрация Запомнить меня
Войти через:  Facebook Google Twitter Vk Yandex Mail.ru

Orange Juice - Rip It Up - аккорды и текст, таба, видео

Печатать
Просмотров: 208
Авторы музыки: Edwyn Collins
Авторы текста: Edwyn Collins
Rip It Up
Orange Juice
Couldn't find a tab for this song so i've had a go myself.  These are the basic 
chords, so have a listen to the song for the strumming pattern.

Part A (Verse/Chorus)
e--8---8---8---8-----8--8-------10---10--10-10-10-10-10-10-(14)-|
B--8---8---8---8-----8--8-------12---12—-12-12-12-12-12-12-(15)-|
G--9---9---9---9-----9--9-------11---11--11-11-11-11-11-11-(14)-|
D--10—-10--10--10----10-10------12---12--12-12-12-12-12-12------|
A---------------------------------------------------------------|
E---------------------------------------------------------------|


Part B (Post Chorus)
e--8----7----8---3-------|
B--8----7----8---3-------|
G--9----7----9---4-------|
D--10--------10--5-------|
A------------------------|
E------------------------|

Orange Juice Myspace: http://www.myspace.com/hokoyo
Latest info on Orange Juice:   http://www.nme.com/news/nme/40902
Wikipedia: http://en.wikipedia.org/wiki/Orange_Juice
Добавлено: 23.04.2012
Другие материалы по этой песне:
  • Аккорды и текст

Страница создана 23.04.2012
http://primanota.ru/orange-juice/rip-it-up-chords.htm
Привет, Гость.
Предлагаем пройти революционный курс по гитаре.
Подарок от PrimaNota.Ru, забирай!