PrimaNota.ru - самый крупный в мире бесплатный архив песенных текстов, аккордов, табулатур и нот


Orange House - Пять минут до - аккорды и текст, видео

Регистрация Запомнить меня
Войти через:  Facebook Google Twitter Vk Yandex Mail.ru

Orange House - Пять минут до - аккорды и текст, видео

Печатать
Просмотров: 292
Пять минут до
Orange House
Перебор:

---------------------
---------------------
----5-4--------5-4---
---------------------
--5---------5--------
3---------3----------

Который год ложусь спать в семь утра - встаю в восемь

---------------------
---------------------
----4-2--------4-2---
--0---------0--------
---------------------
2---------2----------

Привычный вход в этот мир после пары стаканов кофе

---------------------
---------------------
----2-0--------2-0---
---------------------
--2---------2--------
0---------0----------

Мечта в коробке за грудой планов, что скоро рухнет,

-----------------------
-----------------------
-----5-4--------5-4--2-
---4----------4--------
2-----------2----------
-----------------------

Забыв на кухне открытый газ, надеюсь сестра Керри простит нас.

И без обид, никто не желает давно твоей смерти.
Пусть все не в ритм, наша жизнь - не сборник законов Мерфи.
Ты веришь в свет, и в яблоки (Рене Магритт), в правдивость - да-нет,
Людей, что клялись и ты верил - гребанный мир тебя больше не трахнет.

Недели в ряд, глаза без цвета - не лучший признак.
Смотреть в себя. Я не был счастливым еще с прошлой жизни
Мечта в коробке - все глубже в шкаф, все больше в тайне
Завис в дедлайне, завис, как труп, и все привыкли, что все безнадежно врут.

Наш общий бег, где некогда больше влюбляться заново
Устав от вех - придуманный смысл блядскими планами.
Влюбленный в жизнь, разуверенный в силе честного слова
Снова - пол второго, по ржавым венам, внизу спит ребенок
Нервно. 
Добавлено: 13.05.2015
Другие материалы по этой песне:
  • Аккорды и текст

Страница создана 13.05.2015
http://primanota.ru/orange-house/pyat-minut-do-chords.htm
Привет, Гость.
Предлагаем пройти революционный курс по гитаре.
Подарок от PrimaNota.Ru, забирай!