PrimaNota.ru - самый крупный в мире бесплатный архив песенных текстов, аккордов, табулатур и нот


Orange Goblin - The Big Black - таба, бас-таба, видео

Регистрация Запомнить меня
Войти через:  Facebook Google Twitter Vk Yandex Mail.ru

Orange Goblin - The Big Black - таба, бас-таба, видео

Печатать
Просмотров: 201
Уроки эстрадного вокала в Санкт-Петербурге
Orange Goblin - The Big Black

Album: The Big Black - 2000
Instrument: Guitar
Tuning: Drop-D

Tabbed by: Kerim B. Jansson (one-weak)

s - slide
PM - palm mute
h - hammer on


Intro
Guitar 1:
[00:00] ( after the second time, Guitar 2 joins in)

e||------------------------------------------------------||
B||------------------------------------------------------||
G||----------------7s9-7-------7s9-7---------------------||
D||------------5-7-------8~-8~-------8-7-7s8-7-----------||
A||---7-7--5-7---------------------------------8---------||
E||------------------------------------------------------||


[00:50]
Guitar 2

e||------------------------------------------------------||
B||------------------------------------------------------||
G||-----------4-6----------------------------------------||
D||--6-6--4-6-----4s6-4-------4s6-4----------------------||
A||---------------------5~-5~-------5-4-4s5-4------------||
E||-------------------------------------------7-6~-6~----||


[01:06]
Guitar 2

e||------------------------------------------------------||
B||------------------------------------------------------||
G||------------------------------------------------------||
D||----------4s6-4------4s6-4----------------------------||
A||------2-4-------5-~5----------5-4-4s5-4---------------||
E||--4-6-----------------------------------7-------------||


Chorus
[01:17]
Both guitars (heavy distortion)

e||-----------------------------------------------------------------||
B||-----------------------------------------------------------------||
G||-----------------------------------------------------------------||
D||--2--2---0--2--5--7--7s14--12--8--8---8s14--12--8--7--8--7--3----||
A||--2--2---0--2--5--7--7s14--12--8--8---8s14--12--8--7--8--7--3----||
E||--2--2---0--2--5--7--7s14--12--8--8---8s14--12--8--7--8--7--3----||


Verse
[02:05]

   {----------------PM----------------}
e||------------------------------------------------------------------||
B||------------------------------------------------------------------||
G||------------------------------------------------------------------||
D||-2--2--2--2--2--2--5--2--2--2--2--2---8--7-----7--6------3--3--0--||
A||-2--2--2--2--2--2--5--2--2--2--2--2---8--7-----7--6------3--3--0--||
E||-2--2--2--2--2--2--5--2--2--2--2--2---8--7-----7--6------3--3--0--||

Guitar 2 in the background

e||------------------------------------------------------------------||
B||--------------------------------------------0--------0------------||
G||------------------------------------------2---2----1---1----------||
D||------------------------------------------------------------------||
A||------------------------------------------------------------------||
E||------------------------------------------------------------------||


Chorus
[02:54]


Verse
[03:19]


Interlude
[04:09]

e||--------------------|---------------------------------------------||
B||--------------------|---third time--------------------------------||
G||--------------------|---------------------------------------------||
D||--2--5--7--8--3--0--|--2--5--7--8--3--8--3--7--3--6--3------------||
A||--2--5--7--8--3--0--|--2--5--7--8--3--8--3--7--3--6--3------------||
E||--2--5--7--8--3--0--|--2--5--7--8--3--8--3--7--3--6--3------------||


Verse
[04:33]


Chorus
[05:22]


Outro
[05:46]
Guitar 1

e||------------------------------------------------------------------||
B||------------------------------------------------------------------||
G||--------------------------7-7-7h9---------------------------------||
D||--0h2-2-0-0h2-2-0-0h2-2-------------------------------------------||
A||--0h2-2-0-0h2-2-0-0h2-2-------------------------------------------||
E||--0h2-2-0-0h2-2-0-0h2-2-------------------------------------------||


Solo
[05:59]
This would take too much time. You figure it out yourself :)

Добавлено: 11.03.2012
Другие материалы по этой песне:
  • Аккорды и текст

Страница создана 11.03.2012
http://primanota.ru/orange-goblin/the-big-black-chords.htm
Привет, Гость.
Предлагаем пройти революционный курс по гитаре.
Подарок от PrimaNota.Ru, забирай!