PrimaNota.ru - самый крупный в мире бесплатный архив песенных текстов, аккордов, табулатур и нот


Orange Goblin - Astral Project - бас-таба, видео

Регистрация Запомнить меня
Войти через:  Facebook Google Twitter Vk Yandex Mail.ru

Orange Goblin - Astral Project - бас-таба, видео

Печатать
Просмотров: 194
                        Song: Astral Project
                        Band: Orange Goblin
                      Tabbed By: ChriS Povey (metallica-best@hotmail.co.uk)

Verse
F |-------------------------|
C |-------------------------|
G |-------------5\7-8-7-5---|
D |---5\7-7-7-7-------------|

Chorus
F |----------------------------------------------|
C |----------------------------------------------|
G |------------------------3-3-3-3-3\5-5-5-5-5---|
D |---3-3-3-3-3\6-6-6-6-6------------------------|

The Trippy part #1+Solo
F |---------------------|
C |--------------3-5b---|
G |----------3h5--------|
D |---5\7-8b------------|

Trippy part #2
F |--------------------------|
C |--------------------------|
G |-----------5h7-5--7h9-7---|
D |---7-7h9-7----------------|

Chorus of Trippy part
F |---------------------------|
C |---------------------------|
G |---------------------------|
D |---5-5-5-5-5-5-5-5-5h7-5---|
Добавлено: 21.02.2012
Другие материалы по этой песне:
  • Аккорды и текст

Страница создана 21.02.2012
http://primanota.ru/orange-goblin/astral-project-chords.htm
Привет, Гость.
Предлагаем пройти революционный курс по гитаре.
Подарок от PrimaNota.Ru, забирай!