PrimaNota.ru - самый крупный в мире бесплатный архив песенных текстов, аккордов, табулатур и нот


oral cigarettes - Hey Kids - таба, видео

Регистрация Запомнить меня
Войти через:  Facebook Google Twitter Vk Yandex Mail.ru

oral cigarettes - Hey Kids - таба, видео

Печатать
Просмотров: 187
Авторы музыки: 山中拓也
Авторы текста: 山中拓也
-------------------------------------------------------------------------------
                             Hey Kids - Oral Cigarettes
-------------------------------------------------------------------------------
Tabbed by: Irving Medina
Tuning: Standard

Guitar 2 - Consists only of power chords

            e|----------------------------------------------------------------------------|
   wait     B|--4-------------------------------------------------------------------------|
4 measures  G|--3----------------------------5-------------------------4------------------|
            D|-------------------------------4-------------------------3------------------|
            A|--3-------------------------------------------------------------------------|
            E|-------------------------------4-------------------------3------------------|

            e|----------------------------------------------------------------------------|
   wait     B|--3-------------------------------------------------------------------------|
8 measures  G|--3----------------------------5-------------------------4------------------|
            D|-------------------------------4-------------------------3------------------|
            A|--3-------------------------------------------------------------------------|
            E|-------------------------------4-------------------------3------------------|

e|---------------------------------------------------------------------------|
B|---------------------------------------------------------------------------|
G|------------------------------------5-5-5----7--7----8--8------------------|
D|--3-3-3----5--5----6-6-6----8--8----5-5-5----7--7----8--8------------------|
A|--3-3-3----5--5----6-6-6----8--8----3-3-3----5--5----6--6------------------|
E|--1-1-1----3--3----4-4-4----6--6-------------------------------------------|

e|---------------------------------------------------------------------------|
B|---------------------------------------------------------------------------|
G|----------------------------8-8-8----8--8----5-5-5----3--3-----------------|
D|--6-6-6-6-6----8-8-8-8-8----8-8-8----8--8----5-5-5----3--3-----------------|
A|--6-6-6-6-6----8-8-8-8-8----6-6-6----5--5----3-3-3----1--1-----------------|
E|--4-4-4-4-4----6-6-6-6-6---------------------------------------------------|

e|---------------------------------------------------------------------------|
B|---------------------------------------------------------------------------|
G|--------------------------------4-4-4----5-5-5-5-5-------------------------|
D|--6-6-6-6-6----8-8-8-8-8----9-9-4-4-4----5-5-5-5-5-------------------------|
A|--6-6-6-6-6----8-8-8-8-8----9-9-2-2-2----3-3-3-3-3-------------------------|
E|--4-4-4-4-4----6-6-6-6-6----7-7--------------------------------------------|

e|---------------------------------------------------------------------------|
B|---------------------------------------------------------------------------|
G|--5-5-5-5-5----7-7-7-7-7----8-8-8----8--8----5-5-5----3--3-----------------|
D|--5-5-5-5-5----7-7-7-7-7----8-8-8----8--8----5-5-5----3--3-----------------|
A|--3-3-3-3-3----5-5-5-5-5----6-6-6----5--5----3-3-3----1--1-----------------|
E|---------------------------------------------------------------------------|

e|---------------------------------------------------------------------------|
B|---------------------------------------------------------------------------|
G|----------------------------------------wait-------------------------------|
D|--6-6-6-6-6----5-5-5----3--3---------2 measures----------------------------|
A|--6-6-6-6-6----5-5-5----3--3-----------------------------------------------|
E|--4-4-4-4-4----3-3-3----1--1-----------------------------------------------|

e|----------------------------------------------------------------------------------------|
B|----------------------------------------------------------------------------------------|
G|----------------------------8-8-8----8--8----5-5-5----3--3------------------------------|
D|--6-6-6-6-6----8-8-8-8-8----8-8-8----8--8----5-5-5----3--3----6-6-6-6-6----5-5-5----4-4-|
A|--6-6-6-6-6----8-8-8-8-8----6-6-6----5--5----3-3-3----1--1----6-6-6-6-6----5-5-5----4-4-|
E|--4-4-4-4-4----6-6-6-6-6--------------------------------------4-4-4-4-4----3-3-3----1-1-|

            e|----------------------------------------------------------------------------|
    wait    B|----------------------------------------------------------------------------|
    1.5     G|----------------------------------------------------------------------------|
  measures  D|---------6--6--------8--------10--------------------------------------------|
            A|---------6--6--------8--------10--------------------------------------------|
            E|---------4--4--------6--------8---------------------------------------------|


Добавлено: 15.05.2016
Другие материалы по этой песне:
  • Аккорды и текст

Страница создана 15.05.2016
http://primanota.ru/oral-cigarettes/hey-kids-chords.htm
Привет, Гость.
Предлагаем пройти революционный курс по гитаре.
Подарок от PrimaNota.Ru, забирай!