PrimaNota.ru - самый крупный в мире бесплатный архив песенных текстов, аккордов, табулатур и нот


Opwekking - Wees Mijn Verlangen Opw 520 - бас-таба, видео

Регистрация Запомнить меня
Войти через:  Facebook Google Twitter Vk Yandex Mail.ru

Opwekking - Wees Mijn Verlangen Opw 520 - бас-таба, видео

Печатать
Просмотров: 53
-------------------------------------------------------------------------------
                             SONG NAME - Band Name
-------------------------------------------------------------------------------
Tabbed by: 
E-mail: 

Tuning:

Vers 1:=======================================================================
G|---------------------------------------------------------------------------|
D|---------------------------------------2-----------------------------------|
A|-3-------------0---------3-------------------------------------------------|
E|---------------------------------------------------------------------------|
   Wees mijn ver-langen, o Heer van mijn hart

G|-----------------------2------------0--------------------------------------|
D|-0----------0--------------------------------------------------------------|
A|---------------------------------------------------------------------------|
E|---------------------------------------------------------------------------|
   leer mij u ken-nen in vreug-de en smart

G|-2--------------2-----------0----------------------------------------------|
D|---------------------------------------------------------------------------|
A|----------------------------------------0----------------------------------|
E|---------------------------------------------------------------------------|
   Laat mijn ge - dacht-en op U zijn ge - richt

G|------------2--------------------------------------------------------------|
D|-------------------------0-------------------------------------------------|
A|-3--------------------------------3--3-------------------------------------|
E|---------------------------------------------------------------------------|
   wa-kend of sla-pend ver-vuld van uw licht



Vers 2:=======================================================================
G|---------------------------------------------------------------------------|
D|---------------------------------------2-----------------------------------|
A|-3-----------0------------3------------------------------------------------|
E|---------------------------------------------------------------------------|
   Geef mij uw wijs-heid uw woord-en van eer,

G|----------------------2--------0-------------------------------------------|
D|-0------0--0---------------------------------------------------------------|
A|---------------------------------------------------------------------------|
E|---------------------------------------------------------------------------|
   dat ik in u blijf en U in mij Heer,

G|-2---------------2-------0-------------------------------------------------|
D|---------------------------------------------------------------------------|
A|-------------------------------2--0----------------------------------------|
E|---------------------------------------------------------------------------|
   U als mijn Va - der en ik als uw kind

G|--------0--2---------------------------------------------------------------|
D|-------------------------0-------------------------------------------------|
A|-3-----------------------------3----3--------------------------------------|
E|---------------------------------------------------------------------------|
   dat in uw ar-men ge - bor-gen-heid vindt.



Vers 3:=======================================================================
G|---------------------------------------------------------------------------|
D|-0------------------------0------------3-----------------------------------|
A|-------------2-------------------------------------------------------------|
E|---------------------------------------------------------------------------|
   Geef mij uw schild en uw zwaard in de strijd,

G|-------------------------4---------2---------------------------------------|
D|-2--------2---2-----------------------------------------------------------|
A|---------------------------------------------------------------------------|
E|---------------------------------------------------------------------------|
   maak mij tot mach-ti-ge da-den be-reid

G|-4------------4---------------2--------------------------------------------|
D|---------------------------------------------------------------------------|
A|-------------------------------------3---2---------------------------------|
E|---------------------------------------------------------------------------|
   Wees als een burcht, als een to-ren van kracht

G|----------2----4-----------------------------------------------------------|
D|-0--------------------------2-------0---0----------------------------------|
A|0--------------------------------------------------------------------------|
E|---------------------------------------------------------------------------|
   wijs mij om - hoog waar uw lief-de mij wacht.



Vers 4:=======================================================================
G|---------------------------------------------------------------------------|
D|-0------------------------0-----------3------------------------------------|
A|--------------2------------------------------------------------------------|
E|---------------------------------------------------------------------------|
   Wat baat mij rijk-dom of eer van een mens:

G|----------------------4---------2------------------------------------------|
D|-2-----2---2---------------------------------------------------------------|
A|---------------------------------------------------------------------------|
E|---------------------------------------------------------------------------|
   bij U te wo - nen is al wat ik wens

G|-4------------4-----------2------------------------------------------------|
D|---------------------------------------------------------------------------|
A|--------------------------------3--2---------------------------------------|
E|---------------------------------------------------------------------------|
   met als be - lo-ning dat ik op U lijk;

G|----------2----4-----------------------------------------------------------|
D|-0----------------------------2-------0--0---------------------------------|
A|0--------------------------------------------------------------------------|
E|---------------------------------------------------------------------------|
   He - mel-se   Ko - ning, pas dan ben ik rijk.



Vers 5:=======================================================================
G|---------------------------------------------00----------------------------|
D|-22-------3----------------------2-------3---------------------------------|
A|--------------33---------2---3---------------------------------------------|
E|---------------------------------------------------------------------------|
   He - mel-se  Ko - ning, die het kwaad o-ver-won

G|------------------------55-----------44------------------------------------|
D|-33-----3----33------------------------------------------------------------|
A|---------------------------------------------------------------------------|
E|---------------------------------------------------------------------------|
   als ik daar kom in het licht van uw zon

G|-55------------55----------44----------------------------------------------|
D|---------------------------------------0-----------------------------------|
A|------------------------------------------33-------------------------------|
E|---------------------------------------------------------------------------|
   stra-lend van vreug-de, ge-tooid als een bruid

G|-----------4---55----------------------------------------------------------|
D|-22--------------------2---33--------2-22----------------------------------|
A|---------------------------------------------------------------------------|
E|---------------------------------------------------------------------------|
   gaat mijn ver-lan-gen nog meer naar U uit.




===============================================================================
Добавлено: 26.04.2016
Вам также может быть интересно:
Другие материалы по этой песне:
  • Аккорды и текст

Страница создана 26.04.2016
http://primanota.ru/opwekking/wees-mijn-verlangen-opw-520-chords.htm
Привет, Гость.
Предлагаем пройти революционный курс по гитаре.
Подарок от PrimaNota.Ru, забирай!