PrimaNota.ru - самый крупный в мире бесплатный архив песенных текстов, аккордов, табулатур и нот


Opwekking - 710 Gebed Om Zegen - таба, видео

Регистрация Запомнить меня
Войти через:  Facebook Google Twitter Vk Yandex Mail.ru

Opwekking - 710 Gebed Om Zegen - таба, видео

Печатать
Просмотров: 62
e|-------------------------------------------------------|
B|--Slide 15--13-13--13-15s16-16-16--16-16-15------------|
G|-------------------------------------------------------|
D|-------------------------------------------------------|
A|-------------------------------------------------------|
E|-------------------------------------------------------|

e|-----------------------------15------------------------|
B|--s15--13-13--13-15s16-16-16---18-16-15----------------|
G|----------------------------------------17-15-14-------|
D|-------------------------------------------------------|
A|-------------------------------------------------------|
E|-------------------------------------------------------|

e|---------------------------------------------------------------|
B|----------------------13----------------------------13h15-13---|
G|-14-15-------------14----15-14-12--------12----s12-15----------|
D|-------15--------------------------13-15--------------------15-|
A|----------13-slide---------------------------------------------|
E|---------------------------------------------------------------|

e|------------------------------13----|
B|-13-15-16-15-13b(15)-11-13----------|
G|------------------------------------|
D|---------------------------15-------|
A|------------------------------------|
E|------------------------------------|

e|-18-17------------------------------------|
B|-------20-18------------18s20v-18-slide---|
G|-------------20b(21)-18-------------------|
D|------------------------------------------|
A|------------------------------------------|
E|------------------------------------------|
Добавлено: 26.04.2016
Другие материалы по этой песне:
  • Аккорды и текст

Страница создана 26.04.2016
http://primanota.ru/opwekking/710-gebed-om-zegen-chords.htm
Привет, Гость.
Предлагаем пройти революционный курс по гитаре.
Подарок от PrimaNota.Ru, забирай!