PrimaNota.ru - самый крупный в мире бесплатный архив песенных текстов, аккордов, табулатур и нот


Opm - Punanny Interlude - аккорды и текст, видео

Регистрация Запомнить меня
Войти через:  Facebook Google Twitter Vk Yandex Mail.ru

Opm - Punanny Interlude - аккорды и текст, видео

Печатать
Просмотров: 117
Уроки эстрадного вокала в Санкт-Петербурге
Punanny Interlude
Opm
Song: Punanny (Interlude)
Band: O.P.M.
Album: Menace to Sobriety
Year: 2000
Tabber: beranger80@hotmail.com



Organ Riff (0:00)

e------------------------------|
b-------------14-13-11---------|
g--10-12-10-------------12-15--|
d------------------------------| x6
a------------------------------|
e------------------------------|



Guitar riff (0:11)

e--3--3--3--3--|
b--3--3--5--5--|
g--4--4--5--5--|
d--5--5--5--5--| x7
a--5--5--3--3--|
e--3--3--------|
Добавлено: 21.06.2016
Другие материалы по этой песне:
  • Аккорды и текст

Страница создана 21.06.2016
http://primanota.ru/opm/punanny-interlude-chords.htm
Привет, Гость.
Предлагаем пройти революционный курс по гитаре.
Подарок от PrimaNota.Ru, забирай!