PrimaNota.ru - самый крупный в мире бесплатный архив песенных текстов, аккордов, табулатур и нот


Opm - Dealearman - таба

Регистрация Запомнить меня
Войти через:  Facebook Google Twitter Vk Yandex Mail.ru

Opm - Dealearman - таба

Печатать
Просмотров: 126
Standard tuning

Rhythm guitar:
Verse & Pre-chorus:
   Em
---0---0---0---0---|
---0---0---0---0---|
---0---0---0---0---|
---2---2---2---2---|
---2---2---2---2---|
---0---0---0---0---|

Chorus:
   C   Em  C   Em
---0---0---0---0---|
---1---0---1---0---|
---0---0---0---0---|
---2---2---2---2---|
---3---2---3---2---|
-------0-------0---|

Bridge: 02:13
---0—0--0--0--0---0-3-2-----|
---0--0--0--0--0---0-3-2----|
---0--0--0--0--0---0-3-2----|
---2--2--2--2--2---2-5-4----|
---2--2--2--2--2---2-5-4----|
---0--0--0--0--0---0-3-2----|

Lead guitar:
Verse:
-------------|---3--2--0---|
-------------|---------0---|
-------------|-------------|
------0--2---|-------------|
---2---------|-------------|
-------------|-------------|

Chorus:
-----------------------------|
-----------------------------|
-------5-----4---------------|
-----5-----4-----------------|
---3-----2-------------------|
-----------------------------|

2nd pre-chorus:
------------------|
---5-4-5-4-5-4----|
------------------|
------------------|
------------------|
------------------|

Bridge:
-------------------------|
------------------0------|
------------------0--2---|
---2-2-2-2-2---2---------|
-------------------------|
-------------------------|

Solo:
------5/7-3-5-3----10-------10----10----10-10h12-----15-14-12-10---------------------|
--5-8-----------------12-12----12----12--------------------------12-10-------10------|
-----------------------------------------------------------------------12-12----12-9-|
-------------------------------------------------------------------------------------|
-------------------------------------------------------------------------------------|
-------------------------------------------------------------------------------------|

------------------------------------------------------------10-10h12---p10---|
---10-12----10-----------------------------10-12----10-----------------------|
---------12----12----------------9-12---12-------12----12--------------------|
----------------------------9-12---------------------------------------------|
----------------------10-12--------------------------------------------------|
-----------------------------------------------------------------------------|
Добавлено: 24.05.2012
Другие материалы по этой песне:
  • Аккорды и текст

Страница создана 24.05.2012
http://primanota.ru/opm/dealearman-chords.htm
Привет, Гость.
Предлагаем пройти революционный курс по гитаре.
Подарок от PrimaNota.Ru, забирай!