PrimaNota.ru - самый крупный в мире бесплатный архив песенных текстов, аккордов, табулатур и нот


Opihi Pickers - Old Fashioned Touch - таба, видео

Регистрация Запомнить меня
Войти через:  Facebook Google Twitter Vk Yandex Mail.ru

Opihi Pickers - Old Fashioned Touch - таба, видео

Печатать
Просмотров: 124
Уроки эстрадного вокала в Санкт-Петербурге
This hawaiian reggae band features intensive finger picking and ukelele solos, but I
them for the guitar. This is about as accurate as I can get...they're extremely fast.

s=slide, h=hammer red=technique where string is plucked insanely fast multiple times by
fingers (??)

Intro:
|-------------------------------------------------------------------------------------------|
|--11s13---------------------------------------------------------------------9--13--14--16--|
|------------13--13s15--10s8--8-------8s6--6------------------------------------------------|
|--------------------------------------10------------6s8--8------------6h8------------------|
|---------------------------------------------------------------6--6h8----------------------|
|-------------------------------------------------------------------------------------------|

CRAZY solo…
|--11------------------------------------------------------------------------------------|
|-------9--------9-----9-----9s11----------8--9--8--9--11--9--11--13--11--13--13h14--13--|
|----------8--8-----8-----8---------8--10------------------------------------------------|
|----------------------------------------------------------------------------------------|
|----------------------------------------------------------------------------------------|
|----------------------------------------------------------------------------------------|


|-----------------------------------------16--15--11--11----------11-----------13------------|
|--9h8--7s6-----9--9--9--8--9----------------------------------------------------------------|
|---------------8--------------------------------------------11--9-------13--13------13--13--|
|--------------------------------------------------------------------------------------------|
|------------------------------------11------------------------------------------------------|
|--------------------------------------------------------------------------------------------|


|--15-----------16----------18--16--15h16--15--13-------------------------13--13--18--16--------|
|----------------------------16---------------------------13--13--12--11--9--11--11--16---------|
|------13--13-------13--13--------------------------------------------------------------17------|
|-------------------------------------------------------------------------------------------18--|
|-----------------------------------------------------------------------------------------------|
|-----------------------------------------------------------------------------------------------|


|--20--18--16h18--16--15-----------------16--15--15h16--15--15--18--16s15------16-----------|
|--16---------------------------18-------16---------------------------------------------18--|
|--17--------------------------------13-----------------------------------------------------|
|--18---------------------------------------------------------------------------------------|
|-------------------------------------------------------------------------------------------|
|-------------------------------------------------------------------------------------------|


|--16-----------------16------------16------------15------------15------------13------------13--|
|-----------------------------------------------------------------------------------------------|
|---------------------------13--13-------13--13-------13--13-------13--13-------13--13----------|
|-------13--13--13------------------------------------------------------------------------------|
|-----------------------------------------------------------------------------------------------|
|-----------------------------------------------------------------------------------------------|


|--------------------------------------------------------------------------------------|
|------------16-------13----------------------13------------11-------------------------|
|--13--13-------13-------13------------13-------13------------12-------13--13--12h13---|
|-------------------------------------13-----------------13------------13--------------|
|--------------------------------11----------------------------------------------------|
|--------------------------------------------------------------------------------------|

---------------------|
---------------------|
---------------------|
-----------------15--|
--------------11-----|
---------------------|


|-------------------------------------------|
|-------------------------------------------|
|-------------------------------------------|
|-------13-------10-------------------------|
|--11-------11-------11---------------------|
|-------------------------------------------|
Добавлено: 26.07.2012
Вам также может быть интересно:
Другие материалы по этой песне:
  • Аккорды и текст

Страница создана 26.07.2012
http://primanota.ru/opihi-pickers/old-fashioned-touch-chords.htm
Привет, Гость.
Предлагаем пройти революционный курс по гитаре.
Подарок от PrimaNota.Ru, забирай!