PrimaNota.ru - самый крупный в мире бесплатный архив песенных текстов, аккордов, табулатур и нот


Opeth - Faith In Others - аккорды и текст, видео

Регистрация Запомнить меня
Войти через:  Facebook Google Twitter Vk Yandex Mail.ru

Opeth - Faith In Others - аккорды и текст, видео

Печатать
Просмотров: 71
Авторы музыки: Mikael Åkerfeldt
Авторы текста: Mikael Åkerfeldt
Faith In Others
Opeth
Standard tuning

Strung together from some guy on youtube.

100% guaranteed not error free ;)

Intro

  Dm Dsus4  Am      Bb Bbma7?Gm     A
|-1--0------0-----|-1---5----3---|--0-------------|
|-3--3--3---1---3-|-3---3----3---|--2-------------|
|-2--2------2-----|-3---3----3---|--2-------------|
|-0--0------2-----|--------------|--2-------------|
|-----------0-----|--------------|--0-------------|
|-----------------|--------------|----------------|

  Dm Dsus4  Am      Bb Bbma7?Gm     A7
|-1--0------0-----|-1--5-----3---|--3-------------|
|-3--3--3---1--3--|-3--3-----3---|--2-------------|
|-2--2------2-----|-3--3-----3---|--2-------------|
|-0--0------2-----|--------------|--2-------------|
|-----------0-----|--------------|--0-------------|
|-----------------|--------------|----------------|


Verse 1

Dm        D5/A            A
The grave of our youth is up ahead
Dm D5/a             A
And life has become a burden
Bb   C               Dm             Bbm6
We move in circles of suppressed despair
Bb      A       Dm
Waiting for the sun
F6/C  Bm7   Bbma7                A7
And turning stones to find evidence
Bb        C                D       
But it hides in the recesses of our hearts

Verse 1

  Dm D5/A  A           Dm D5/A  A        Bb   C   Dm Bbm6
|-1---0----0---------|--1--0----0------|--1---0---1---3--|
|-3---3----2---------|--3--3----2------|--3---1---3---2--|
|-2---2----2---------|--2--2----2------|--3---0---2---3--|
|-0---0----2---------|--0--0----2------|--3---2---0------|
|----------0---------|----------0------|--1---3----------|
|--------------------|-----------------|-----------------|

    F6/C  Bm7  Bbma7  A7    Bb  C   D
|---1-----1-----------3--|--1---0---2-----|
|---3-----3----3------2--|--3---1---3-----|
|---2-----2----2------2--|--3---0---2-----|
|---------------------2--|--3---2---0-----|
|---3-----2----1---------|--1---3---------|
|------------------------|----------------|



Piano arranged for guitar

  Dm       C        Dm      C 
|------1---0------|-----1---0-----|
|------3---1------|-----3---1-----|
|---2------0------|---2-----0-----|
|-0---------------|-0-------------|
|-----------------|---------------|
|-----------------|---------------|


Verse 2

Dm          C          Dm   C
Written the creed of our loss
Dm                C      Dm    C
And we carried no faith in the cross

G            Ebma7     F
And the cold years are coming
G               Ebma7   F
For the victims of a longing


   G   Ebma7 F
|--3---------1------|
|--3---3-----1------|
|--4---3-----2------|
|--5---5-----3------|
|--5---6-----3------|
|--3---------1------|


Dm              C        Dm      C
Out through the doors of starvation
Dm             C     Dm     C 
And into the rains of damnation

G           Ebma7            F
Where the bitter winds are singing
G           Ebma7       F
For the victims of a longing



Interlude

|-----------------------------|
|-----------------------------|
|-10--9---7h9h10/12--10p9-7---|
|-0-------0-------------------|
|-----------------------------|
|-----------------------------|


|-1---0-----------------|-1--0--------------|
|-3---1-----------------|-3--1--------------|
|-2---0-----------------|-2--0------------2-|
|-0---2--------2--3-2-0-|-0--2--------2-3-0-|
|-----3----3-5----------|----3----3-5-------|
|--------5--------------|-------5-----------|

|--------------------------|-1---------|
|--------------------------|-3---------|
|--------------------------|-3---------|
|--------------------------|-3---------|
|-1--3--5--7--8--10--7--5--|-1---------|
|--------------------------|-----------|


Verse 3

Dm   D5/A      A
We carried along through squalor
Dm D5/A                A
With an inborn need to dominate and possess
Bb    C         Dm           Bbm6
Gives birth to an anger inside
Bb           A         Dm
And we can't control this
F6/C         Bm7                   Bbma7                   A7
The blood of departure in our tracks dripping from our emptying vessels
Bb        A                Dm
Your hand reached out to hold mine but you're grasping melting ice

Verse 3 

  Dm D5/A  A           Dm D5/A  A        Bb   C   Dm Bbm6
|-1---0----0---------|--1--0----0------|--1---0---1---3--|
|-3---3----2---------|--3--3----2------|--3---1---3---2--|
|-2---2----2---------|--2--2----2------|--3---0---2---3--|
|-0---0----2---------|--0--0----2------|--3---2---0------|
|----------0---------|----------0------|--1---3----------|
|--------------------|-----------------|-----------------|

    F6/C  Bm7  Bbma7  A7    Bb  A   Dm
|---1-----1-----------3--|--1---0---1-----|
|---3-----3----3------2--|--3---2---3-----|
|---2-----2----2------2--|--3---2---2-----|
|---------------------2--|--3---2---0-----|
|---3-----2----1---------|--1---0---------|
|------------------------|----------------|


Break
..melting ice
    (Dm)  G#m  Dm Dsus4  Asus4     A        Dbm  Dbsus4  Bb   Bbmsus4 Db5
|----(1)-------1--3--|---0------|--0-----|--4----4----|--1----1----------|
|----(3)-------3--3--|---3------|--2-----|--5----4----|--2----1----------|
|----(2)-------2--2--|---2------|--2-----|--6----6----|--3----3-------6--|
|----(0)--2----0--0--|---2------|--2-----|--6----6----|--3----3-------6--|
|---------2----------|---0------|--0-----|--4----4----|--1----1-------4--|
|---------4----------|----------|--------|------------|------------------|


Last verse

   Dm                Em
|--5-----0--------|--5---------|----------------|
|----6------------|----5-------|----------------|
|------7----------|------5-----|----------------|
|-----------------|--------7---|----------------|
|--5--------------|------------|----------------|
|-----------------|--0---------|----------------|

Asleep in the rain
A child once again
And the ghost in my head
Has forgiven me

Lifted his curse upon me

Outro

missing tabs :/


Добавлено: 03.10.2015
Другие материалы по этой песне:
  • Аккорды и текст

Страница создана 03.10.2015
http://primanota.ru/opeth/faith-in-others-chords.htm
Привет, Гость.
Предлагаем пройти революционный курс по гитаре.
Подарок от PrimaNota.Ru, забирай!