PrimaNota.ru - самый крупный в мире бесплатный архив песенных текстов, аккордов, табулатур и нот


Operation Ivy - Vulnerability - аккорды и текст, таба, видео

Регистрация Запомнить меня
Войти через:  Facebook Google Twitter Vk Yandex Mail.ru

Operation Ivy - Vulnerability - аккорды и текст, таба, видео

Печатать
Просмотров: 210
Уроки эстрадного вокала в Санкт-Петербурге
Vulnerability
Operation Ivy
		   te: Tue, 27 Jan 1998 23:00:36 -0500

Band: Operation Ivy
Song: Vulnerability

Tab By: justin kraft

hell, this took a long time.. this is my first "real" tab, so if you have any
improments/comments email them to jubjub@telenet.net

 x> - x isn't needed, but could be played
[x] - x is not in every verse   (just listen to the song, you'll see what i
mean)
 /  - slide

order of the song: intro, intro, 1, 2, 1, 2, intro w/ 1 & 2, 1, 2, 1, 2, 3,
3, 4,
4 (to *), intro w/ 1 & 2, intro w/ 1 & 2, end

   intro:

E||----------------------------------------------------------  I really don't think
B||----------------------------------------------------------  this intro is right,
G||----------------------------------------------------------  but it sounds close.
D||--4----4---------7-----7------------------------4--- 7>---
A||--5----5--- 5>---5-----5--- 5>---4-------7------5----5----
E||---------------------------------5-- 5>--5---------- 5>---X2


E||-----------------------------------------
B||-----------------------------------------
G||-----------------------------------------
D||-----------------------------------------
A||--7----7----7----7-\-5----5----4----5----
E||--5--------------5-\ 3>------------------X2


   riff 1:

E||------------------------------------------
B||------------------------------------------
G||--7-7-7-7-------7-7--7-7-7-7-------7-7----
D||--7-7-7-7--7-7--7-7--7-7-7-7--7-7--7-7----
A||--5-5-5-5--7-7--5-5--5-5-5-5--7-7--5-5----
E||-----------5-5----------------5-5---------


   riff 2:

E||-----------------------------------------
B||-----------------------------------------
G||----------------7-7----------------7-7---
D||--7-7-7-7--5-5--7-7--7-7-7-7--5-5--7-7---
A||--7-7-7-7--5-5--5-5--7-7-7-7--5-5--5-5---
E||--5-5-5-5--3-3-------5-5-5-5--3-3--------


   riff 3:

E||------------------------------------------
B||------------------------------------------
G||-------7----------------------------------
D||--5--5-7--7--7-7-7--6---7--7-7-7--6-/[5]--
A||--5--5-5--7--7-7-7--6---7--7-7-7--6-/[5]--
E||--3--3----5--5-5-5--4---5--5-5-5--4-/[3]--


   riff 4:
                                    *
E||---------------------------------*-----------------
B||---------------------------------*-----------------
G||----------7-7-7-7----------------*-----------------
D||-5-5-5-5--7-7-7-7--7--7-7-7--6---7--7-7-7--6-/[5]--
A||-5-5-5-5--5-5-5-5--7--7-7-7--6---7--7-7-7--6-/[5]--
E||-3-3-3-3-----------5--5-5-5--4---5--5-5-5--4-/[3]--
                                    *

   end:

E||------------------
B||------------------
G||------------7-7---
D||-5---5-5--7-7-7---
A||-5---5-5--5-5-5---
E||-3---3-3----------     
Добавлено: 03.07.2013
Другие материалы по этой песне:

Страница создана 25.02.2012
http://primanota.ru/operation-ivy/vulnerability-chords.htm
Привет, Гость.
Предлагаем пройти революционный курс по гитаре.
Подарок от PrimaNota.Ru, забирай!