PrimaNota.ru - самый крупный в мире бесплатный архив песенных текстов, аккордов, табулатур и нот


Operation Ivy - 6 To 10 - таба, видео

Регистрация Запомнить меня
Войти через:  Facebook Google Twitter Vk Yandex Mail.ru

Operation Ivy - 6 To 10 - таба, видео

Печатать
Просмотров: 81
-------------------------------------------------------------------------------
                             6 to 10 - operation ivy
-------------------------------------------------------------------------------
Tabbed by: josh st.louis
E-mail:pukeandpiss4@gmail.com

Tuning: standard


INTRO

just bass
repeat for verse as well



G|---------------------------------|
D|---------------------------------|
A|-------3-2-----------55555-------|
E|-55555------5--33333-------------|


VERSE

guitar chords

e|-----------------|
B|-----------------|
G|-------7---------|
D|-7--5--7---------|
A|-7--5--5---------|
E|-5--3------------|



CHORUS

bass


G|------------5777-55-----|---------------|
D|--------------------77--|---------------|
A|---2-3-4-5--------------|------------5--|
E|-3----------------------|-5-5-5--333----|


guitar

e|------------------------------------------------------------------|
B|------------------------------------------------------------------|
G|--------77777----------77777-----------77777-----------------7----|
D|-55555--77777---55555--77777---555555--77777---7-7-7--555----7----|
A|-55555--55555---55555--55555---555555--55555---7-7-7--555----5----|
E|-33333----------33333----------333333----------5-5-5--333---------|


SOLO

bass plays verse riff
guitar 
repeat 4x with less notes 3rd time

e|-------8-7------10-----|
B|-10-10-----10-8--------|
G|-----------------------|
D|-----------------------|
A|-----------------------|
E|-----------------------|


6 to 10 the light sets in
 
this guy went down outside this place 
he was upset 
wasn't time for fear to hit his face 
he was hurrying
  
something hit his camera got smashed 
body fell and was took away he was fragile 
guy that hit him took empty beers out of his car
 
6 to 10 the light sets in

crowd assembled to take a look at death 
blood 
shattered skull and blacktop running red
up front 

some people looked bored like expecting more 
cuz sympathy's only friendships whore
sympathy is only friendships whore
but it shouldn't be

6 to 10 the light sets in 



************************************

| /   slide up
| \   slide down
| h   hammer-on
| p   pull-off
| ~   vibrato
| +   harmonic
| x   Mute note
| b   Bend
| pb  Pre-bend
| br  Bend release
| pbr Pre-bend release
| brb Bend release bend

************************************
Добавлено: 03.08.2015
Другие материалы по этой песне:
  • Аккорды и текст

Страница создана 03.08.2015
http://primanota.ru/operation-ivy/6-to-10-chords.htm
Привет, Гость.
Предлагаем пройти революционный курс по гитаре.
Подарок от PrimaNota.Ru, забирай!