PrimaNota.ru - самый крупный в мире бесплатный архив песенных текстов, аккордов, табулатур и нот


Oomph - Jetzt Oder Nie - таба, видео

Регистрация Запомнить меня
Войти через:  Facebook Google Twitter Vk Yandex Mail.ru

Oomph - Jetzt Oder Nie - таба, видео

Печатать
Просмотров: 167
Уроки эстрадного вокала в Санкт-Петербурге
-------------------------------------------------------------------------------
                             Jetzt oder nie - Oomph!
-------------------------------------------------------------------------------
Tabbed by:
E-mail:

Tuning:Standard B

main riff

B|---------------------------------------------------------------------------------------|
G|---------------------------------------------------------------------------------------|
D|---------------------------------------------------------------------------------------|
A|---------------------------------------------------------------------------------------|
E|2--2-------2--2-5-7-5-2--2-------5-7-5-8-7-5-2--2-------2--2-5-7-5-2--2-------5-7-5-8--|
B|0--0-0-0-0-0--0-------0--0-0-0-0-------------0--0-0-0-0-0--0-------0--0-0-0-0----------|
       x x x                 x x x                  x x x                 x x x

B|---------------------------------------------------------------------------------------|
G|---------------------------------------------------------------------------------------|
D|---------------------------------------------------------------------------------------|
A|-----------------------------------------------------------------------------10---7----|
E|2--2-------2--2-5-7-5-2--2-------5-7-5-8-7-5-2--2-------2--2-5-7-5-2--2-------8---5----|
B|0--0-0-0-0-0--0-------0--0-0-0-0-------------0--0-0-0-0-0--0-------0--0-0-0-0----------|
       x x x                 x x x                  x x x                 x x x

Verse 1
B|---------------------------------------------------------------------------------------|
G|---------------------------------------------------------------------------------------|
D|---------------------------------------------------------------------------------------|
A|---------------------------------------------------------------------------------------|
E|---------------------------------5-7-5-8-7-5----------------------------------5-7-5-8--|
B|0--0-------0--0-------0--0-------------------0--0-------0--0-------0--0----------------|


B|---------------------------------------------------------------------------------------|
G|---------------------------------------------------------------------------------------|
D|---------------------------------------------------------------------------------------|
A|---------------------------------------------------------------------------------------|
E|---------------------------------5-7-5-8-7-5----------------------------------8---5----|
B|0--0-------0--0-------0--0-------------------0--0-------0--0-------0--0----------------|


PreChorus
B|------------------------------------------------|
G|------------------------------------------------|
D|------------------------------------------------|
A|------------------------------------------------|
E|------------------------------------------------|
B|2-2-2-5-5-5-3-3-3-0-0-0-2-2-2-5-5-5-0-0-0-3-3-3-|


Chorus
B|--------------------------------------------------------------------------------|
G|--------------------------------------------------------------------------------|
D|--------------------------------------------------------------------------------|
A|-------------------------------------------7--7-------7--9--2--2----------------|
E|2--2----------2--4--6--6-------------------5--5-5-5-5-5--7--0--0-0-0-0-0-2-0-2--|
B|0--0-0-0-0-0--0--2--3--3-3-3-3-0-3-0-3-0-3--------------------------------------|
       x x x               x x x                  x x x            x x x

B|--------------------------------------------------------------------------------|
G|--------------------------------------------------------------------------------|
D|--------------------------------------------------------------------------------|
A|5--5-------5------------------------------------------------------------12-7----|
E|3--3-3-3-3-3--3-0-3-2--2-------2--2-4--5--5-----------5--5-7-2-2-2-2-2--10-5----|
B|--------------------0--0-0-0-0-0--0-2--3--3--3--3-3-3-3--3-5--------------------|
       x x x               x x x                  x x x        x x x x x


************************************

| /   slide up
| \   slide down
| h   hammer-on
| p   pull-off
| ~   vibrato
| +   harmonic
| x   Mute note
| b   Bend
| pb  Pre-bend
| br  Bend release
| pbr Pre-bend release
| brb Bend release bend

************************************
Добавлено: 27.04.2016
Другие материалы по этой песне:
  • Аккорды и текст

Страница создана 27.04.2016
http://primanota.ru/oomph/jetzt-oder-nie-chords.htm
Привет, Гость.
Предлагаем пройти революционный курс по гитаре.
Подарок от PrimaNota.Ru, забирай!