PrimaNota.ru - самый крупный в мире бесплатный архив песенных текстов, аккордов, табулатур и нот


Onslaught - Metal Forces - текст песни, таба, видео

Регистрация Запомнить меня
Войти через:  Facebook Google Twitter Vk Yandex Mail.ru

Onslaught - Metal Forces - текст песни, таба, видео

Печатать
Просмотров: 155
Авторы музыки: Nige Rockett

----------------------------------------------------------------------------|
----------------------------------------------------------------------------|
----------------------------------------------------------------------------|
-2--2-3-2-5-2-3-2--2-3-2-------2--2-3-2-5-2--7--5--2--2-3-2-5-2-3-2--2-3-2--|
-------------------------3-2-3---------------5--3---------------------------|
----------------------------------------------------------------------------|


----------------------------------------------------------------------------|
----------------------------------------------------------------------------|
----------------------------------------------------------------------------|
--------2--2-3-2-5-2--7--5--2------------2------------2------------7--5--2--|
--3-2-3---------------5--3--2------------2------------2------------5--3--2--|
----------------------------0--0-0-0-0-0-0--0-0-0-0-0-0--0-0-0-0-0-------0--|
                               . . . . .    . . . . .    . . . . .
----------------------------------------------------------------------------|
----------------------------------------------------------------------------|
----------------------------------------------------------------------------|
-------------2------------2------------7--5--2------------2------------2----|
-------------2------------2------------5--3--2------------2------------2----|
---0-0-0-0-0-0--0-0-0-0-0-0--0-0-0-0-0-------0--0-0-0-0-0-0--0-0-0-0-0-0----|
   . . . . .    . . . . .    . . . . .          . . . . .    . . . . .
----------------------------------------------------------------------------|
----------------------------------------------------------------------------|
----------------------------------------------------------------------------|
------------7--5--2------------2------------2------------7--5--2------------|
------------5--3--2------------2------------2------------5--3--2------------|
--0-0-0-0-0-------0--0-0-0-0-0-0--0-0-0-0-0-0--0-0-0-0-0-------0--0-0-0-0-0-|
  . . . . .          . . . . .    . . . . .    . . . . .          . . . . .
----------------------------------------------------------------------------|
----------------------------------------------------------------------------|
----------------------------------------------------------------------------|
-2------------2------------7--5--2------------5--4\5-------2------------7-7-|
-2------------2------------5--3--2------------3--2\3--5/4--2------------5-5-|
-0--0-0-0-0-0-0--0-0-0-0-0-------0--0-0-0-0-0---------3/2--0--0-0-0-0-0-----|
    . . . . .    . . . . .          . . . . .                 . . . . .
----------------------------------------------------------------------------|
----------------------------------------------------------------------------|
----------------------------------------------------------------------------|
-------2------------5--4\5-------2------------7-7-------2------------5--4\5-|
--5/4--2------------3--2\3--5/4--2------------5-5--5/4--2------------3--2\3-|
--3/2--0--0-0-0-0-0---------3/2--0--0-0-0-0-0------3/2--0--0-0-0-0-0--------|
          . . . . .                 . . . . .              . . . . .
----------------------------------------------------------------------------|
----------------------------------------------------------------------------|
----------------------------------------------------------------------------|
------2------------7-7-------2------------5--4\5-------2------------5--4\5--|
-5/4--2------------5-5--5/4--2------------3--2\3--5/4--2------------3--2\3--|
-3/2--0--0-0-0-0-0------3/2--0--0-0-0-0-0---------3/2--0--0-0-0-0-0---------|
         . . . . .              . . . . .                 . . . . .
----------------------------------------------------------------------------|
----------------------------------------------------------------------------|
----------------------------------------------------------------------------|
------2---------------------------------------------------------------------|
-5/4--2---------------------------------------------------------------------|
-3/2--0--0-0-0-0-0----------------------------------------------------------|
         . . . . .




sorry it took soo long but heres more of the song, ill try to put more of it when i can
Добавлено: 15.04.2012
Другие материалы по этой песне:

Страница создана 15.04.2012
http://primanota.ru/onslaught/metal-forces-chords.htm
Привет, Гость.
Предлагаем пройти революционный курс по гитаре.
Подарок от PrimaNota.Ru, забирай!