PrimaNota.ru - самый крупный в мире бесплатный архив песенных текстов, аккордов, табулатур и нот


Onslaught - Fight With The Beast - текст песни, таба, видео

Регистрация Запомнить меня
Войти через:  Facebook Google Twitter Vk Yandex Mail.ru

Onslaught - Fight With The Beast - текст песни, таба, видео

Печатать
Просмотров: 81
Intro
Fig 1 x 5
|-|--------------------------------|-|
|-|--------------p-----------------|-|
|o|2-2-2---2--3-20-2-2-2---5--5--5-|o|
|o|2-2-2---2--3-20-2-2-2---5--5--5-|o|
|-|------0---------------0---------|-|
|-|--------------------------------|-|
         .               .

whammy bar dive

Fig 2 x 4
|-|--------------------------------|-|
|-|--------------------------------|-|
|o|--------------------------------|o|
|o|------------------------5--5--5-|o|
|-|0000000000000000000000003--3--3-|-|
|-|--------------------------------|-|
   ........................

Fig 3a x 1
|-|----------------------------------------------------------------|-|
|-|----------------------------------------------------------------|-|
|o|----------------------------------------------------------------|o|
|o|777777777777777777777777777777777777777777777777----------------|o|
|-|555555555555555555555555555555555555555555555555X\\\\\\\\\\\\\\\|-|
|-|----------------------------------------------------------------|-|

Fig 2 x 2
|-|--------------------------------|-|
|-|--------------------------------|-|
|o|--------------------------------|o|
|o|------------------------5--5--5-|o|
|-|0000000000000000000000003--3--3-|-|
|-|--------------------------------|-|
   ........................

Fig 3b x 1
|-|----------------------------------------------------------------|-|
|-|----------------------------------------------------------------|-|
|o|----------------------------------------------------------------|o|
|o|7777777777777777777777777777777777777777777777775--5--5-4--4--4-|o|
|-|5555555555555555555555555555555555555555555555553--3--3-2--2--2-|-|
|-|----------------------------------------------------------------|-|

Fig 2 x 2
|-|--------------------------------|-|
|-|--------------------------------|-|
|o|--------------------------------|o|
|o|------------------------5--5--5-|o|
|-|0000000000000000000000003--3--3-|-|
|-|--------------------------------|-|
   ........................

Fig 4 x 1
|-|----------------------------------------------------------------|-|
|-|----------------------------------------------------------------|-|
|o|----------------------------------------------------------------|o|
|o|----------------------------------------------------------------|o|
|-|5555555555555555555555555555555555555555555555555555555555555555|-|
|-|3333333333333333333333333333333333333333333333333333333333333333|-|

Fig 2 x 2
|-|--------------------------------|-|
|-|--------------------------------|-|
|o|--------------------------------|o|
|o|------------------------5--5--5-|o|
|-|0000000000000000000000003--3--3-|-|
|-|--------------------------------|-|
   ........................

Fig 5 x 1
|-|----------------------------------------------------------------|-|
|-|----------------------------------------------------------------|-|
|o|----------------------------------------------------------------|o|
|o|5555555555555555777777777777777733333333333333335555555555555555|o|
|-|3333333333333333555555555555555511111111111111113333333333333333|-|
|-|----------------------------------------------------------------|-|

Fig 1 x 2
|-|--------------------------------|-|
|-|--------------p-----------------|-|
|o|2-2-2---2--3-20-2-2-2---5--5--5-|o|
|o|2-2-2---2--3-20-2-2-2---5--5--5-|o|
|-|------0---------------0---------|-|
|-|--------------------------------|-|
         .               .

Fig 1c x 1
|-|----------------------------------------------------------------|-|
|-|----------------------------------------------------------------|-|
|o|----------------------------------------------------------------|o|
|o|777777777777777777777777777777775--5--5-5--5--5-5---------------|o|
|-|555555555555555555555555555555553--3--3-3--3--3-3---------------|-|
|-|----------------------------------------------------------------|-|
                                                   *

Fig 2 x 4
Fig 3a x 1
Fig 2 x 2
Fig 3b x 1
Fig 2 x 2
Fig 4 x 1
Fig 2 x 2
Fig 5 x 1
Fig 1 x 2
Fig 1c x 1

Bridge
Fig 6 x 4
|-|----------------------------------------------------------------|-|
|-|----------------------------------------------------------------|-|
|o|----------------------------------------------------------------|o|
|o|------------------------------------------------------------7---|o|
|-|8\7---5---------8\7---5---------8\7---5---------8\7---5-----5---|-|
|-|6\5-0-3-0-0-0-0-6\5-0-3-0-0-0-0-6\5-0-3-0-0-0-0-6\5-0-3-0-0-----|-|
       .   . . . .     .   . . . .     .   . . . .     .   . .

Fig 7 x 12
|-|--------------------------------|-|
|-|--------------------------------|-|
|o|--------------------------------|o|
|o|----7h8-------------------------|o|
|-|------------7h8-----3-0-2---0-2-|-|
|-|0-0-----0-0-----0-0-------3-----|-|
   . .     . .     . .

Fig 8 x 6
|-|----------------------------------------------------------------|-|
|-|----------------------------------------------------------------|-|
|-|----------------------------------------------------------------|-|
|-|--------------------------2-2-3-----------------5-0-2-3-0-2-2-3-|-|
|-|--------------------------2-2-3-----------------5-0-2-3-0-2-2-3-|-|
|-|0-0-0-0-0-0-0-0-0-0-0-0-0-------0-0-0-0-0-0-0-0-----------------|-|
   . . . . . . . . . . . . .       . . . . . . . .

Fig 9 x 4
|-|----------------------------------------------------------------|-|
|-|----------------------------------------------------------------|-|
|o|----------------------------------------------------------------|o|
|o|------------2-3-------------3-5-------------7-8-----5-7-----3-5-|o|
|-|------------2-3-------------3-5-------------7-8-----5-7-----3-5-|-|
|-|0-0-0-0-0-0-----0-0-0-0-0-0-----0-0-0-0-0-0-----0-0-----0-0-----|-|
   . . . . . .     . . . . . .     . . . . . .     . .     . .

Fig 1 x 4
|-|--------------------------------|-|
|-|--------------p-----------------|-|
|o|2-2-2---2--3-20-2-2-2---5--5--5-|o|
|o|2-2-2---2--3-20-2-2-2---5--5--5-|o|
|-|------0---------------0---------|-|
|-|--------------------------------|-|
         .               .

Solo
Fig 2 x 8
|-|--------------------------------|-|
|-|--------------------------------|-|
|o|--------------------------------|o|
|o|------------------------5--5--5-|o|
|-|0000000000000000000000003--3--3-|-|
|-|--------------------------------|-|
   ........................

Fig 10 x 2
|-|----------------------------------------------------------------|-|
|-|----------------------------------------------------------------|-|
|o|----------------------------------------------------------------|o|
|o|----------------------------------------------------------------|o|
|-|--------9-10-10---------9--5--7---------9-10-10-12-10-9-10-9--7-|-|
|-|777777777--8--8-777777777--3--5-777777777--8--8-10-8--7-8--7--5-|-|
   ........        ........        ........

Fig 11 x 2
|-|----------------------------------------------------------------|-|
|-|----------------------------------------------------------------|-|
|o|----------------------------------------------------------------|o|
|o|--------9-10-10---------9--5--7---------9-10-10-12-10-9-10-9--7-|o|
|-|777777777--8--8-777777777--3--5-777777777--8--8-10-8--7-8--7--5-|-|
|-|----------------------------------------------------------------|-|
   ........        ........        ........

Fig 2 x 4 (end of solo)
|-|--------------------------------|-|
|-|--------------------------------|-|
|o|--------------------------------|o|
|o|------------------------5--5--5-|o|
|-|0000000000000000000000003--3--3-|-|
|-|--------------------------------|-|
   ........................

Fig 3a x 1
Fig 2 x 2
Fig 3b x 1
Fig 2 x 2
Fig 4 x 1
Fig 2 x 2
Fig 5 x 1
Fig 1 x 2
Fig 1c x 1
Fig 3c x 1
Fig 2 x 4

End
Fig 12 x 1
|-|----------------------------------------------------------------|-|
|-|----------------------------------------------------------------|-|
|o|----------------------------------------------------------------|-|
|o|2-------5-------7-------5---------------------------------------|-|
|-|0-------3-------5-------3-------7-------5---7-------5---7-------|-|
|-|--------------------------------5-------3---5-------3---5-------|-|
                                   *           *           *

|-|----------------------------------------------------------------|-|
|-|----------------------------------------------------------------|-|
|-|----------------------------------------------------------------|-|
|-|----------------------------------------------------------------|-|
|-|2---3-----------------------------------------------------------|-|
|-|0---1-----------------------------------------------------------|-|
       ^

|-|----------------------------------------------------------------|-|
|-|----------------------------------------------------------------|-|
|-|----------------------------------------------------------------|o|
|-|----------------------------------------------------------------|o|
|-|7-------7-------7--------5--------------------------5---7\------|-|
|-|5-------5-------5--------3--------------------------3---5\------|-|
   *       *       *        ^
Добавлено: 25.12.2015
Вам также может быть интересно:
Другие материалы по этой песне:
  • Аккорды и текст

Страница создана 27.03.2012
http://primanota.ru/onslaught/fight-with-the-beast-chords.htm
Привет, Гость.
Предлагаем пройти революционный курс по гитаре.
Подарок от PrimaNota.Ru, забирай!