PrimaNota.ru - самый крупный в мире бесплатный архив песенных текстов, аккордов, табулатур и нот


Onslaught - Death Metal - текст песни, таба, видео

Регистрация Запомнить меня
Войти через:  Facebook Google Twitter Vk Yandex Mail.ru

Onslaught - Death Metal - текст песни, таба, видео

Печатать
Просмотров: 199
Уроки эстрадного вокала в Санкт-Петербурге
Band:  Onslaught
Album: Power From Hell
Song:  Death Metal

Copyright (c)  (Under One Flag) (1987)
Version 1.0 - (20/04/06)

Transcribed By: Steve
Email:          stephen.elvidge1@ntlworld.com


.  - palm mute           /  - slide up to
\  - slide down to       ~  - vibrato
h  - hammer on           b  - Bend
p  - pull off            Suffixes for bend
t  - tap                 f  - full bend    h - half bend
ph - pinched harmonic    q  - quarter bend t - tap bend
*  - see comment         ^  - Hold bend    r release bend
x  - Stuccatto           ~  - vibrato bend
,  - slight palm mute    () - ghost note, sustained note
"  - tremolo note        <> - harmonic

Tunning E A D G B E
 
      Slow slide
E----------------|
B----------------|
G-11-11\---------|
D-11-11\---------|
A-9--9\----------|
E----------------|

 Main Riff

E---------------------------------------------|
B---------------------------------------------|
G---------------------------------------------|
D-----------------------------------------5\4-|
A---4-4---4-4---4-4/7/9---4-4---4-4---4-4-3\2-|
E-0-2-2-0-2-2-0-2-2/5/7-0-2-2-0-2-2-0-2-2-----| Rpt 8 X

 Chorus

E-----------------------------------------------------------------|
B-----------------------------------------------------------------|
G-----------------------------------------------------------------|
D-6-6-6-6-6-6-6-6-6/10\9---(9)---6-6-6-6-6-6-6-6-6/10\9-10-9-10\9-|
A-4-4-4-4-4-4-4-4-4/9-\7---(7)---4-4-4-4-4-4-4-4-4/9-\7-9--7-9-\7-|
E-----------------------------------------------------------------|

E-----------------------------------------------------------------|
B-----------------------------------------------------------------|
G-----------------------------------------------------------------|
D-6-6-6-6-6-6-6-6-6/10\9---(9)---6-6-6-6-6-6-6-6-6/10\9-10-9-10\9-|
A-4-4-4-4-4-4-4-4-4/9-\7---(7)---4-4-4-4-4-4-4-4-4/9-\7-9--7-9-\7-|
E-----------------------------------------------------------------|

E----------------|
B----------------|
G----------------|
D-10\9-10-9-10\9-|
A-9-\7-9--7-9-\7-|
E----------------|

 Rpt Main Riff 7 X

 Rpt Chorus

 Guitar solo
      h   h   h   h   h   h     h              h      ~~~~~~~~~~~~
E------------------------------------------10-12p10-12fb-12fb-12fb--|
B-----------------------------7-10p7-10/12--------------------------|
G-9p7-9p7-9p7-9p7-9p7-9p7-9p7---------------------------------------|
D-------------------------------------------------------------------|
A-------------------------------------------------------------------|
E-------------------------------------------------------------------|

            h     ~~~~~~~~~~~~~~
E------------------------------------|
B-12-10-10-12p10-12fb-12fb-12fb-12\--|
G------------------------------------|
D------------------------------------|
A------------------------------------|
E------------------------------------|

                                  ~~~~~~~~~~
E---------------------------------------------|
B---------------------------------------------|
G-9p7-9p7-9p7-9p7-9p7-9p7-9p7-9p7-9b--------r-|
D---------------------------------------------|
A---------------------------------------------|
E---------------------------------------------|

                              ~~~~~
E----------------------------------19-22-19-17----------------|
B----------------------------17fb--------------19-17-15-12----|
G----------------------------------------------------------14-|
D---7-9p7-----------------------------------------------------|
A-9-------9-9p7-9p7-9p7-9p7-----------------------------------|
E-------------------------------------------------------------|

                        ~~~~~~~~~~~~~~~~~~~~~~~~~~~~~~~~~
E--------------------------------------------------------|
B-15-17p15-17p15-17p15-17b-17b-17b-----------------------|
G--------------------------------------------------------|
D-----------------------------------14b-14b-14b-14b------|
A---------------------------------------------------12---|
E--------------------------------------------------------|

                             h
E------------------------10-12p1010-12b-12br12b-12b-12b-p10----------|
B----------------8-10/12------------------------------------12-10-12-|
G-----------11-9-----------------------------------------------------|
D--------------------------------------------------------------------|
A-7-9p77-0-----------------------------------------------------------|
E--------------------------------------------------------------------|

E-------------------|
B-12b-12b-12b-12b\--|
G----------------\--|
D----------------\--|
A-------------------|
E-------------------|

 Backing for solo

E-----------------------------------------------------------------|
B-----------------------------------------------------------------|
G-----------------------------------------------------------------|
D-4-4-4-4-4-4-4-4-6-6-6-6-6-6-6-6-6/10\9-10-9-10\9-10\9-10-9-10\9-|
A-2-2-2-2-2-2-2-2-4-4-4-4-4-4-4-4-4/9-\7-9--7-9-\7-9-\7-9--7-9-\7-|
E-----------------------------------------------------------------|
                                                Rpt 4 X

 Rpt Main Riff 3 X
 Rpt Verse
 Rpt Chorus


E-----------------------------------------------------------------|
B-----------------------------------------------------------------|
G-----------------------------------------------------------------|
D-4-4-4-4-4-4-4-4-6-6-6-6-6-6-6-6-6/10\9-10-9-10\9-10\9-10-9-10\9-|
A-2-2-2-2-2-2-2-2-4-4-4-4-4-4-4-4-4/9-\7-9--7-9-\7-9-\7-9--7-9-\7-|
E-----------------------------------------------------------------|
                                                Rpt 3 X

 Rpt Main Riff 2 X
 Rpt Verse
 Rpt Chorus

E---------------------------------------------------------|
B---------------------------------------------------------|
G---------------------------------------------------------|
D-10\9-10-9-10\9-9------------(9)------------9/10-10-\----|
A-9-\7-9--7-9-\7-7------------(7)------------7/9--9--\----|
E---------------------------------------------------------|



END

Добавлено: 13.05.2012
Другие материалы по этой песне:
  • Аккорды и текст

Страница создана 13.05.2012
http://primanota.ru/onslaught/death-metal-chords.htm
Привет, Гость.
Предлагаем пройти революционный курс по гитаре.
Подарок от PrimaNota.Ru, забирай!