PrimaNota.ru - самый крупный в мире бесплатный архив песенных текстов, аккордов, табулатур и нот


Ono Yoko - Namyohorengekyo - таба, видео

Регистрация Запомнить меня
Войти через:  Facebook Google Twitter Vk Yandex Mail.ru

Ono Yoko - Namyohorengekyo - таба, видео

Печатать
Просмотров: 93
"Namyohorengekyo"
by Yoko Ono

>From the album "Onobox" (1992)

Guitar arrangement from the piano
by dylan_rush@hotmail.com

Not a lot to this one, but what a strange and
beautiful song...

E----5----3----------------5---3-------
B--6----6----4--1--4-----6---6---4-----
G--------------------------------------
D--------------------------------------
A----------------------------------rpt.
E--------------------------------------

  F
X03211
Namyohorengekyo, namyohorengenkyo,

Eb
XX1343
namyohorengekyo, namyohorengenkyo...


E----5----3----------------5---3-------
B--6----6----4--1--4-----6---6---4-----
G--------------------------------------
D--------------------------------------
A----------------------------------rpt.
E--------------------------------------

  F
X03211
Namyohorengekyo, namyohorengenkyo,

Eb
XX1343
namyohorengekyo, namyohorengenkyo...

E----5----3----------------5---3-------
B--6----6----4--1--4-----6---6---4-----
G--------------------------------------
D--------------------------------------
A----------------------------------rpt.
E--------------------------------------

and so on, repeat endlessly...

_________________________________________________________________
     
Добавлено: 30.07.2013
Другие материалы по этой песне:
  • Аккорды и текст

Страница создана 30.07.2013
http://primanota.ru/ono-yoko/namyohorengekyo-chords.htm
Привет, Гость.
Предлагаем пройти революционный курс по гитаре.
Подарок от PrimaNota.Ru, забирай!