PrimaNota.ru - самый крупный в мире бесплатный архив песенных текстов, аккордов, табулатур и нот


Only Real - Cant Get Happy - таба, видео

Регистрация Запомнить меня
Войти через:  Facebook Google Twitter Vk Yandex Mail.ru

Only Real - Cant Get Happy - таба, видео

Печатать
Просмотров: 90
Уроки эстрадного вокала в Санкт-Петербурге
-------------------------------------------------------------------------------
                             Can't Get Happy - Only Real
-------------------------------------------------------------------------------
Tabbed by:AceOne77
E-mail:

It's my first tab and I know that I'm not a great guitar player, but I think that the chords look like the
original version

Tuning:



e|--7------------4------------0-----------------------------------------------|
B|--7------------4------------0----------------------------------------------|
G|--8------------4------------1----------------------------------------------|
D|--9------------6------------2--------------------------------------------|
A|--9------------6------------2----------------------------------------------|
E|--7------------4------------0----------------------------------------------|


Don't hesitate to change this tab cause I know it's not perfect
Добавлено: 20.12.2015
Другие материалы по этой песне:
  • Аккорды и текст

Страница создана 20.12.2015
http://primanota.ru/only-real/cant-get-happy-chords.htm
Привет, Гость.
Предлагаем пройти революционный курс по гитаре.
Подарок от PrimaNota.Ru, забирай!