PrimaNota.ru - самый крупный в мире бесплатный архив песенных текстов, аккордов, табулатур и нот


Only Real - Cadillac Girl - аккорды и текст, видео

Регистрация Запомнить меня
Войти через:  Facebook Google Twitter Vk Yandex Mail.ru

Only Real - Cadillac Girl - аккорды и текст, видео

Печатать
Просмотров: 113
Уроки эстрадного вокала в Санкт-Петербурге
Cadillac Girl
Only Real
-------------------------------------------------------------------------------
                             Cadillac Girl - Only Real
-------------------------------------------------------------------------------
Tabbed by: Popkiem101

Sick song by only real, surprised no one has tabbed this yet, well here it is anyway!

Make sure to use a relatively clean amp setting with lots of phaser and some reverb.

| b   Bend
| x   Mute/Ignore

Tuning: Standard


Intro/Main Riff:

e|---------------------7----------------------------------|
B|---------------7--9-------------------------------------|
G|-7-7-7--7-6---------------------------------------------|
D|------------9----------------------9--11b---------------|
A|----------------------------9--11-----------------------|
E|--------------------------------------------------------|


Chords: Used throughout, fairly standard strumming, mostly down strokes though.

    Emaj   Bmaj   F#maj
e|--7------7------7---------------------------------------|
B|--9------7------9---------------------------------------|
G|--9------8------9---------------------------------------|
D|--9------9------9---------------------------------------|
A|--7------9------7---------------------------------------|
E|--x------7------x---------------------------------------|


[Opening Chords] (x2)


[Main Riff Joins] (x4)


[Verse 1] Slightly quieter strumming, with less strokes.

Emaj
Lost doof in a soft roof Cadillac

Bmaj                F#maj
Tossed in the booth and the cops threw Even out

Emaj
Out with the dudes, so I choose the best

Bmaj                F#maj
And her daddy bounced town, so she flew the nest

Emaj
She said roof daddy? , and one for the road

Bmaj                F#maj
How cold that the sober souls found gold?

Emaj
Eyes so still, she's a lonely teaser

Bmaj                F#maj
High Ho, High Ho, if I could only reach her



[Hook] Fairly standard strumming, mostly down strokes though; but listen to the lyrics to see how they fit.

Emaj            Bmaj F#maj
Ohhhh, she's so over me (x3)

Emaj
She's so cold

Bmaj                    F#maj
But the world has moved again since then



[Main Riff] x2



[Verse 2]

Emaj
We were sat.. in the back.. and we spat Black Magic

Bmaj                F#maj
Well the Rat Bats clapped, and we matched bad habits

Emaj
The Happy-Go Mack N' Co's, Cracked out wackos

Bmaj                F#maj
Have-A-Go, Tap-A-Toe, back to the Avenue

Emaj
I have a dream for love?

Bmaj                F#maj
It isn't worth seeing at all

Emaj
You get let down when you reach above

Bmaj                F#maj
So I'm sticking to the Southern Girls



[Hook]

Emaj            Bmaj F#maj
Ohhhh, she's so over me (x3)

Emaj
She's so cold

Bmaj                    F#maj
But the world has moved again since then



[Verse 3]

Emaj
Drive by stars, and high fives Martians

Bmaj                F#maj
Side-by-side as the Night Lights sharpen

Emaj
Darken eyes, bright White Sky laughing

Bmaj                F#maj
Those brights clouds, you can fly right past them

Emaj
To late, Few days, shut off kool-aid?

Bmaj                F#maj
Saddle off, Paddle off, Fruit Loops, Screw-face, New chase

Emaj
Pat that, Souring on moon space?

Bmaj                F#maj
Blackjacks, Snapbacks, Dew-Flats, Due space?



[Hook]

Emaj            Bmaj F#maj
Ohhhh, she's so over me (x3)

Emaj
She's so cold

[No Chords]
But the world has moved again since then.

Добавлено: 20.12.2015
Другие материалы по этой песне:
  • Аккорды и текст

Страница создана 20.12.2015
http://primanota.ru/only-real/cadillac-girl-chords.htm
Привет, Гость.
Предлагаем пройти революционный курс по гитаре.
Подарок от PrimaNota.Ru, забирай!