PrimaNota.ru - самый крупный в мире бесплатный архив песенных текстов, аккордов, табулатур и нот


The Only Children - Lonesome Road - таба, видео

Регистрация Запомнить меня
Войти через:  Facebook Google Twitter Vk Yandex Mail.ru

The Only Children - Lonesome Road - таба, видео

Печатать
Просмотров: 62
"Lonesome Road"  by The Only Children
Tabbed by Tim Cardiello

Capo 4th Fret
* 8th note feel (1+2+3+4+) Fast

INTRO:
 
 (1  + 2 +  3 + 4 +)(1  + 2 +  3 + 4 +)
E|------------------|-------------------|
B|---1--------1-----|---1--------1------|
G|-------0--------0-|-------0--------0--|  Repeat 8x
D|-----2--------2---|-----2--------2----|
A|-3--------3-------|-3--------3--------|
E|------------------|-------------------|

Verse: 

     "I walked down the road..."
E|------------------|-------------------|
B|---1--------1-----|---1--------1------|
G|-------0--------0-|-------2--------2--|  
D|-----2--------2---|-----2--------2----|
A|-3--------3-------|-0--------0--------|
E|------------------|-------------------|
   "in front of       me"
E|------------------|-------------------|
B|---0--------0-----|---1--------1------|
G|-------0--------0-|-------0--------0--|
D|-----0--------0---|-----2--------2----|
A|------------------|-3--------3--------|
E|-3--------3-------|-------------------|
  "just to see..."      "where it..."
E|------------------|-------------------|
B|---1--------1-----|---0--------0------|
G|-------2--------2-|-------0--------0--|
D|-----2--------2---|-----0--------0----|
A|-0--------0-------|-------------------|
E|------------------|-3--------3--------|
  "would lead..."
E|--------------------|-------------------|
B|---1--------1-------|---1--------1------|
G|-------0----------0-|-------0--------0--|
D|-----2--------0h2---|-----2--------2----|
A|-3--------3---------|-3--------3--------|
E|--------------------|-------------------|

  "I walked           for days"
E|------------------|-------------------|
B|---1--------1-----|---1--------1------|
G|-------0--------0-|-------2--------2--|  
D|-----2--------2---|-----2--------2----|
A|-3--------3-------|-0--------0--------|
E|------------------|-------------------|
    "turned into years..."
E|------------------|--------------------|
B|---1--------1-----|---1--------1-------|
G|-------2--------2-|-------0--------0---|
D|-----3--------3---|-----2--------2-----|
A|-3--------3-------|-3--------3---------|
E|------------------|--------------------|
  "still my path..."  "stood so unclear"
E|------------------|-------------------|
B|---1--------1-----|---0--------0------|
G|-------2--------2-|-------0--------0--|
D|-----2--------2---|-----0--------0----|
A|-0--------0-------|-------------------|
E|------------------|-3--------3--------|

E|--------------------|-------------------|
B|---1--------1-------|---1--------1------| 
G|-------0----------0-|-------0--------0--|  
D|-----2--------0h2---|-----2--------2----|  
A|-3--------3---------|-3--------3--------| 
E|--------------------|-------------------|  

Verse 2 & 3: Follow same format for Verse 1
Chorus:     

        "lover..."
E|------------------|-------------------|
B|---1--------1-----|---0--------0------|
G|-------0--------0-|-------0--------0--|
D|-----2--------2---|-----0--------0----|
A|-3--------3-------|-------------------|
E|------------------|-3--------3--------|
               "come back..."
E|------------------|------------------|
B|---1--------1-----|---1-------1------|
G|-------2--------2-|-------0h2---2----|
D|-----2--------2---|-----3---------3--|
A|-0--------0-------|-3----------------|
E|------------------|------------------|

               "lover come on back to..."
E|------------------|-------------------|
B|---1--------1-----|---0--------0------|
G|-------0--------0-|-------0--------0--|
D|-----2--------2---|-----0--------0----|
A|-3--------3-------|-------------------|
E|------------------|-3--------3--------| 
   "...me"
E|--------------------|-------------------|
B|---1--------1-------|---1--------1------| 
G|-------2--------2---|-------2--------2--|  
D|-----2--------2-----|-----2--------2----|  
A|-0--------0---------|-0--------0--------| 
E|--------------------|-------------------| 
        "lover..."
E|------------------|-------------------|
B|---1--------1-----|---0--------0------|
G|-------0--------0-|-------0--------0--|
D|-----2--------2---|-----0--------0----|
A|-3--------3-------|-------------------|
E|------------------|-3--------3--------|
               "come back..."
E|------------------|------------------|
B|---1--------1-----|---1-------1------|
G|-------2--------2-|-------0h2---2----|
D|-----2--------2---|-----3---------3--|
A|-0--------0-------|-3----------------|
E|------------------|------------------|
               "lover come on back to..."
E|------------------|-------------------|
B|---1--------1-----|---0--------0------|
G|-------0--------0-|-------0--------0--|
D|-----2--------2---|-----0--------0----|
A|-3--------3-------|-------------------|
E|------------------|-3--------3--------|
     "...me"
E|------------------|-------------------|
B|---1--------1-----|---1--------1------| 
G|-------0--------0-|-------0--------0--|  
D|-----2--------2---|-----2--------2----|  
A|-3--------3-------|-3--------3--------|
E|------------------|-------------------|  





Repeat verse formula for the last verse, then proceed to chorus once more.

   C               Am
I walked down the road
     G      C
in front of me
         Am       G         C
just to see where it would lead.
    C         Am
I walked for days,
    F         C
turned into years,
    Am  
still my path
    G        C
stood so unclear.

      C       Am
And when the road
  G         C
came to an end
       Am
there stood
 G       C
a lonely man
   C              Am
I looked into his eyes
 F           C
saw the deeper side

      Am     G     C
of a life I once had had.
C    G   Am  F
Lover, come back.
 C      G              C
Lover, come on back to me.

   C      Am   G             C
I saw a bird sitting next to me
    Am         G    C
She had one broken wing.
C            Am         F       C
I asked her why all my love is blind,
             Am   G    C
and she died so quietly.

C    G  Am   F
Lover, come back.
 C      G              Am
Lover, come on back to me.

C    G  Am   F
Lover, come back.
 C      G              C
Lover, come on back to me.

Добавлено: 17.05.2016
Другие материалы по этой песне:
  • Аккорды и текст

Страница создана 17.05.2016
http://primanota.ru/only-children/lonesome-road-chords.htm
Привет, Гость.
Предлагаем пройти революционный курс по гитаре.
Подарок от PrimaNota.Ru, забирай!