PrimaNota.ru - самый крупный в мире бесплатный архив песенных текстов, аккордов, табулатур и нот


One Piece - The Very Very Very Strongest - таба, видео

Регистрация Запомнить меня
Войти через:  Facebook Google Twitter Vk Yandex Mail.ru

One Piece - The Very Very Very Strongest - таба, видео

Печатать
Просмотров: 328
e||-----------------------------------------------------------------------------------------|
B||-----------------------------------------------------------------------------------------|
G||----------------------------------------------------------------------------------7-9--7-|
D||------------10-9-7----7---7--9-----9---7------7----9h10--7---7--9-----9---7-9-10---------|
A||--7h10-7h10--------10-----------7---------10------------------------7--------------------|
E||-----------------------------------------------------------------------------------------|

-------------------------------------------------------------------------|
-------------------------------------------------------------------------|
--------------------------------------------------------------7-9--7-----|
--7---7--9-----9---7------7----9h10--7---7--9-----9---7-9-10-----------7-|
------------7---------10------------------------7------------------------|
-------------------------------------------------------------------------|

-------------------------------------------------------------------------------------------------|
-------------------------------------------------------------------------------------------------|
---------------7------------------------------7-----------------7------------------------------7-|
--10--10--9-10---9--10----9--9--7-9-10-9-----------10--10--9-10---9--10----9--9--7-9-10-9--------|
------------------------------------------10-----------------------------------------------10----|
-------------------------------------------------------------------------------------------------|

--------------------------------------------------------------------------------|
--------------------------------------------------------------------------------|
-----7-9---------------7-------------------------7-9--7-------------------------|
--10---------7----9-10---9-------9---7----7-9-10-----------7--7--10--7----------|
---------10-----------------10-------------------------------------------7------|
-----------------------------------------------------------------------------10-|

-----------------------10------------------------------------------|
--10--13--10---10--13------12---10---------------------------------|
------------------------------------12----------9-12-9-------------|
-----------------------------------------10-12------------7--10--7-|
-------------------------------------------------------------------|
-------------------------------------------------------------------|

-----------------------------------------------------------|
-----------------------------------------------------------|
------------------------------------------------------7----|
--7--7-9-----9---7--7-9-----9---7--7-9-----9---7-9-10---10-|
---------10-------------10-------------10------------------|
-----------------------------------------------------------|

-------------------------------------------|
-------------------------------------------|
----------7------------------------------7-|
-10--9-10---9--10----9--9--7-9-10-9--------|
-------------------------------------10----|
-------------------------------------------|


-------------------------------------------------------------------------------------------------|
-------------------------------------------------------------------------------------------------|
---------------7------------------------------7-----------------7------------------------------7-|
--10--10--9-10---9--10----9--9--7-9-10-9-----------10--10--9-10---9--10----9--9--7-9-10-9--------|
------------------------------------------10-----------------------------------------------10----|
-------------------------------------------------------------------------------------------------|

-----------------------------------------------------------------------|
----------------------------8--------------------------------8--12--10-|
-----7-9---------------7-------7-------7-9---------------7-------------|
--10---------7----9-10---9----------10---------7----9-10---9-----------|
---------10--------------------------------10--------------------------|
-----------------------------------------------------------------------|

---------------------------------------------------------------------|
---------------------------------------------------------------------|
--------------------------------------------------------------7-9--7-|
--7---7--9-----9---7------7----9h10--7---7--9-----9---7-9-10---------|
------------7---------10------------------------7--------------------|
---------------------------------------------------------------------|

------------------------------------------------------------------------|
------------------------------------------------------------------------|
--------------------------------------------------------------7-9--7----|
--7---7--9-----9---7------7----9h10--7---7--9-----9---7-9-10----------7-|
------------7---------10------------------------7-----------------------|
------------------------------------------------------------------------|

-----------------------------------|
-----------------------------------|
-----------------------7-9--12--14-|
--7--9-----9---7-9-10--------------|
---------7-------------------------|
-----------------------------------|
Добавлено: 25.10.2013
Другие материалы по этой песне:
  • Аккорды и текст

Страница создана 25.10.2013
http://primanota.ru/one-piece/the-very-very-very-strongest-chords.htm
Привет, Гость.
Предлагаем пройти революционный курс по гитаре.
Подарок от PrimaNota.Ru, забирай!