PrimaNota.ru - самый крупный в мире бесплатный архив песенных текстов, аккордов, табулатур и нот


One Night Only - All I Want - текст песни, таба, видео

Регистрация Запомнить меня
Войти через:  Facebook Google Twitter Vk Yandex Mail.ru

One Night Only - All I Want - текст песни, таба, видео

Печатать
Просмотров: 125
Standard Tuning
* Palm mute
P Pull off

Intro:
E[--------------------------------]
B[--------------------------------]
G[--------------------------------]
D[77777777------------------------]
A[55555555777777775555555544442222]
E[--------555555553333333322220000]
  ********************************

Verse: Same as intro

Chorus:
E[-----------]     [---]
B[-----------]     [---]
G[-----------] X3  [---]
D[------77---]     [4--]
A[22-55-55-77]     [247] 
E[00-33----55]     [-25]

Verse
Chorus

Guitar solo


E[-------------------------------]
B[5-5-3--5-5-3--7-7-5--7-7-5-7p5-]
G[-----4------4-------6---------6] X4
D[-------------------------------]
A[-------------------------------]
E[-------------------------------]

Bridge: more or less same as chorus
E[-----------]
B[-----------]
G[-----------]
D[-----77----]X4
A[2-55-55-777]
E[0-33----555]

Chorus X2
Добавлено: 06.09.2013
Вам также может быть интересно:
Другие материалы по этой песне:
  • Аккорды и текст

Страница создана 06.09.2013
http://primanota.ru/one-night-only/all-i-want-chords.htm
Привет, Гость.
Предлагаем пройти революционный курс по гитаре.
Подарок от PrimaNota.Ru, забирай!