PrimaNota.ru - самый крупный в мире бесплатный архив песенных текстов, аккордов, табулатур и нот


One Minute Silence - Rise And Shine - аккорды и текст, таба, бас-таба, видео

Регистрация Запомнить меня
Войти через:  Facebook Google Twitter Vk Yandex Mail.ru

One Minute Silence - Rise And Shine - аккорды и текст, таба, бас-таба, видео

Печатать
Просмотров: 144
Уроки эстрадного вокала в Санкт-Петербурге
Авторы музыки: One Minute Silence
Авторы текста: Brian 'Yap' Barry
Rise And Shine
One Minute Silence
One Minute Silence - Rise And Shine
Tabbed By: Jamie Withers
EMail: jwmanson@hotmail.com

This song is like the best song that 1 Minute Silence have done
so enjoy!

tuning: drop d

intro:
G------------|
D--3h5---3--|
A-------3---3|
D------------|

intro part b:
G -----------|------------|
D -----------|------------|
A 5-5-3-5-5-3|-5-3-5-3-5-3|
D -----------|------------|

main riff
G ----------|----------|
D ----------|----------|
A --3-5-55-3|--3-5-55-3|
D 0---------|0---------|

middle part (listen to song)
G -----------------------|
D 0-3h5---3h5---3h5---4h3|
A ------3-----1-----3----|
D -----------------------|

ending:
same as intro (a), but with D 0h1h0
Добавлено: 03.06.2012
Другие материалы по этой песне:

Страница создана 31.05.2012
http://primanota.ru/one-minute-silence/rise-and-shine-chords.htm
Привет, Гость.
Предлагаем пройти революционный курс по гитаре.
Подарок от PrimaNota.Ru, забирай!