PrimaNota.ru - самый крупный в мире бесплатный архив песенных текстов, аккордов, табулатур и нот


One Minute Silence - A More Violent Approach - текст песни, таба, видео

Регистрация Запомнить меня
Войти через:  Facebook Google Twitter Vk Yandex Mail.ru

One Minute Silence - A More Violent Approach - текст песни, таба, видео

Печатать
Просмотров: 131
One Minute Silence - A More Silence Approach

This song is from "Twisted Metal 4" (playstation game).

Intro
e|-------------------------------------------------------|
B|-------------------------------------------------------|
G|-------------------------------------------------------|
D|-------------------------------------------------------|
A|------2b3p0h2b3p0h2b3----------------------------------|
D|-0-3---------------------------------------------------|
                                                                              
Verse
e|-------------------------------------------------------|
B|-------------------------------------------------------|
G|--------5----------------6-----------------------------|
D|--------5----------------6-----------------------------|
A|-0--0-0-3-0-0-3--0-0-0-6-4-----------------------------|
D|-0--0-0---0-0-3--0-0-0-6-------------------------------|
                                                                              
pre-bridge
e|-------------------------------------------------------|
B|-------------------------------------------------------|
G|-------------------------------------------------------|
D|-------------------------------------------------------|
A|--------5-----4---3------------------------------------|
D|-0-0--0---0-0---0---3----------------------------------|
                                                                              
bridge
e|-------------------------------------------------------|
B|-------------------------------------------------------|
G|-------------------------------------------------------|
D|--------7-----6---5------------------------------------|
A|-0-0--0-5-0-0-4-0-3-3----------------------------------|
D|-0-0--0---0-0---0---3----------------------------------|
                                                                             post-bridge
e|-------------------------------------------------------|
B|-------------------------------------------------------|
G|-------------------------------------------------------|
D|-------------------------------------------------------|
A|-0-0--0-0--0-0--0--0-0-3-------------------------------|
D|-0-0--0-0--0-0--0--0-0-3-------------------------------|
Добавлено: 04.04.2012
Другие материалы по этой песне:

Страница создана 04.04.2012
http://primanota.ru/one-minute-silence/a-more-violent-approach-chords.htm
Привет, Гость.
Предлагаем пройти революционный курс по гитаре.
Подарок от PrimaNota.Ru, забирай!