PrimaNota.ru - самый крупный в мире бесплатный архив песенных текстов, аккордов, табулатур и нот


One Man Army - All Night Long - текст песни, таба, видео

Регистрация Запомнить меня
Войти через:  Facebook Google Twitter Vk Yandex Mail.ru

One Man Army - All Night Long - текст песни, таба, видео

Печатать
Просмотров: 132
Уроки эстрадного вокала в Санкт-Петербурге
Song: All Night Long
Artist: One Man Army
Album: Rumors and Headlines
Transcribed by: Sam Brown 4/30/2003 21:36 EDT
 
/* This is a straight-ahead punk rock song.  In case you don't know, the
 5th chords are standard power-chords.  I can't convey the rhythm right
 in tab for the intro and solo, so listen to the song.
 The numbers (1, 2, 3, 4) above the bars in the verse part are to help
 with the rhythm (it is just straight eigth notes.  The guitarist
 in the recording embelishes a little on the chords, and the bass
provides
 plenty of variety.  The lyrics are on the official one man army site,
 www.1manarmysf.com.  enjoy.
*/
 
intro:
  E5                          F#5       G#5
E|----------------------------------------------------------|
B|----------------------------------------------------------|
G|10--10-10--10---------------------------------------------|
D|---------13--13--11------------11--11-11-13-14---14--13---|
A|--------------------11---11-13----------------------------|
E|----------------------------------------------------------|
 
Post-Intro:
C#5
 1   2   3   4    1   2   3   4    1   2   3   4    1   2   3   4   
|x-x-x-x-x-x-x-x-|x-x-x-x-x-x-x-x-|x-x-x-x-x-x-x-x-|x-x-x-x-x-x-x-x-|
 
Verse/Chorus:
C#5
 1   2   3   4    1   2   3   4    1   2   3   4    1   2   3   4   
|x-x-x-x-x-x-x-x-|x-x-x-x-x-x-x-x-|x-x-x-x-x-x-x-x-|x-x-x-x-x-x-x-x-|
 
F#5               (F#m)            C#5
 1   2   3   4    1   2   3   4    1   2   3   4    1   2   3   4   
|x-x-x-x-x-x-x-x-|x-x-x-x-x-x-x-x-|x-x-x-x-x-x-x-x-|x-x-x-x-x-x-x-x-|
 
 
 
Solo!(play twice):
E|-------------------------------------------|
B|-------------------------------------------|
G|-------------------------------------------|
D|11-----------11----------------------------|
A|--11---11-13-----13--11--------------------|
E|------------------------13---11-9-4--------|
        M

     
Добавлено: 02.07.2013
Другие материалы по этой песне:
  • Аккорды и текст

Страница создана 19.05.2012
http://primanota.ru/one-man-army/all-night-long-chords.htm
Привет, Гость.
Предлагаем пройти революционный курс по гитаре.
Подарок от PrimaNota.Ru, забирай!