PrimaNota.ru - самый крупный в мире бесплатный архив песенных текстов, аккордов, табулатур и нот


One Day At A Time - Never Again - таба, видео

Регистрация Запомнить меня
Войти через:  Facebook Google Twitter Vk Yandex Mail.ru

One Day At A Time - Never Again - таба, видео

Печатать
Просмотров: 43
-------------------------------------------------------------------------------
                             SONG NAME - Band Name
-------------------------------------------------------------------------------
Tabbed by:
E-mail:

Tuning: Drop B

B |7-7-7-7-7-7-7-7-7-7-7-7-7-7-7-7---------------------------------|
f#|7-7-7-7-7-7-7-7-7-7-7-7-7-7-7-7---------------------------------|
b |--------------------------------9-9-9-9-9-9-9-9-9-9-9-9-9-9-9-9-|
e |--------------------------------7-7-7-7-7-7-7-7-7-7-7-7-7-7-7-7-|
g#|----------------------------------------------------------------|
c#|----------------------------------------------------------------|

B |----------------------------------------------------------------|
f#|7-7-7-7-7-7-7-7-7-7-7-7-7-7-7-7-3-3-3-3-3-3-3-3-3-3-3-3-3-3-3-3-|
b |5-5-5-5-5-5-5-5-0-0-0-0-0-0-0-0-5-5-5-5-5-5-5-5-5-5-5-5-5-5-5-5-|
e |----------------------------------------------------------------|
g#|----------------------------------------------------------------|
c#|----------------------------------------------------------------|

B |----------------------------------------------------------------|
f#|2-2-2-2-2-2-2-2-2-2-2-2-2-2-2-2-0-0-0-0-0-0-0-0-0-0-0-0-0-0-0-0-|
b |0-0-0-0-0-0-0-0-0-0-0-0-0-0-0-0-0-0-0-0-0-0-0-0-0-0-0-0-0-0-0-0-|
e |----------------------------------------------------------------|
g#|----------------------------------------------------------------|
c#|----------------------------------------------------------------|

B |----------------------------------------------------------------|
f#|0-0-0-0-0-0-0-0-0-0-0-0-0-0-0-0-2-2-2-2-2-2-2-2-2-2-2-2-2-2-2-2-|
b |2-2-2-2-2-2-2-2-2-2-2-2-2-2-2-2-4-4-4-4-4-4-4-4-4-4-4-4-4-4-4-4-|
e |----------------------------------------------------------------|
g#|----------------------------------------------------------------|
c#|----------------------------------------------------------------|


B |7-7-7-7-7-7-7-7-7-7-7-7-7-7-7-7---------------------------------|
f#|7-7-7-7-7-7-7-7-7-7-7-7-7-7-7-7---------------------------------|
b |--------------------------------9-9-9-9-9-9-9-9-9-9-9-9-9-9-9-9-|
e |--------------------------------7-7-7-7-7-7-7-7-7-7-7-7-7-7-7-7-|
g#|----------------------------------------------------------------|
c#|----------------------------------------------------------------|

B |----------------------------------------------------------------|
f#|7-7-7-7-7-7-7-7-7-7-7-7-7-7-7-7-3-3-3-3-3-3-3-3-3-3-3-3-3-3-3-3-|
b |5-5-5-5-5-5-5-5-0-0-0-0-0-0-0-0-5-5-5-5-5-5-5-5-5-5-5-5-5-5-5-5-|
e |----------------------------------------------------------------|
g#|----------------------------------------------------------------|
c#|----------------------------------------------------------------|

B |----------------------------------------------------------------|
f#|2-2-2-2-2-2-2-2-2-2-2-2-2-2-2-2-0-0-0-0-0-0-0-0-0-0-0-0-0-0-0-0-|
b |0-0-0-0-0-0-0-0-0-0-0-0-0-0-0-0-0-0-0-0-0-0-0-0-0-0-0-0-0-0-0-0-|
e |----------------------------------------------------------------|
g#|----------------------------------------------------------------|
c#|----------------------------------------------------------------|

B |----------------------------------------------------------------|
f#|0-0-0-0-0-0-0-0-0-0-0-0-0-0-0-0-2-2-2-2-2-2-2-2-2-2-2-2-2-2-2-2-|
b |2-2-2-2-2-2-2-2-2-2-2-2-2-2-2-2-4-4-4-4-4-4-4-4-4-4-4-4-4-4-4-4-|
e |----------------------------------------------------------------|
g#|----------------------------------------------------------------|
c#|----------------------------------------------------------------|

B |----9-------9-----------------------|
f#|--9-------9--------9----------------|
b |7-------7-------12---9---12-10-9----|
e |------------------------------------|
g#|------------------------------------|
c#|------------------------------------|

B |----------------------------------|
f#|----------7-9---------------------|
b |7-5-4---0-------12-0-5---7-9-5----|
e |----------------------------------|
g#|----------------------------------|
c#|----------------------------------|


B |----9-------9-----------------------|
f#|--9-------9--------9----------------|
b |7-------7-------12---9---12-10-9----|
e |------------------------------------|
g#|------------------------------------|
c#|------------------------------------|

B |----------------------------------|
f#|----------7-9---------------------|
b |7-5-4---0-------12-0-5---7-9-5----|
e |----------------------------------|
g#|----------------------------------|
c#|----------------------------------|



************************************

| /   slide up
| \   slide down
| h   hammer-on
| p   pull-off
| ~   vibrato
| +   harmonic
| x   Mute note
| b   Bend
| pb  Pre-bend
| br  Bend release
| pbr Pre-bend release
| brb Bend release bend

************************************
Добавлено: 18.11.2015
Другие материалы по этой песне:
  • Аккорды и текст

Страница создана 18.11.2015
http://primanota.ru/one-day-at-a-time/never-again-chords.htm
Привет, Гость.
Предлагаем пройти революционный курс по гитаре.
Подарок от PrimaNota.Ru, забирай!