PrimaNota.ru - самый крупный в мире бесплатный архив песенных текстов, аккордов, табулатур и нот


One Day As A Lion - Ocean View - таба, видео

Регистрация Запомнить меня
Войти через:  Facebook Google Twitter Vk Yandex Mail.ru

One Day As A Lion - Ocean View - таба, видео

Печатать
Просмотров: 89
Song: Ocean View
Band: One Day As A Lion
Tabbed by: J.Dawg
Tuning: Standard


For this song use a DigiTech whammy and set it
down 1 octave. Sorry that there is no intro,
it's really hard to sound out. This should be
pretty close.

Verse 1:   X8      0:45
e|--------------------------------------|
b|--------------------------------------|
g|--------------------------------------|
d|--------------------------------------|
a|-3---3-^-3-^-3-^-v-3----4-3h4-3h4p3---|
e|--------------------------------------|


Build Up 1:   X1    0:12
e|--------------------------------------------------------------------------------------------|
b|--------------------------------------------------------------------------------------------|
g|--------------------------------------------------------------------------------------------|
d|--------------------------------------------------------------------------------------------|
a|-1-1-1-1-1-1-1-1-1-1-1-1-1-1-1-1-1-1-1-1-1-1-1-1-1-1-1-1-1-1-1-1-1-1-1-1-1-1-1-1-1-1-1-1-1--|
e|--------------------------------------------------------------------------------------------|

Riff 1:  X8    0:20        Verse 2:   X1      0:06
e|-----------------------||------------------------------------|
b|-----------------------||------------------------------------|
g|-----------------------||------------------------------------|
d|-----------------------||------------------------------------|
a|-3-3-3--3-3-3--3-3-3-x-||-3---3-^-3-^-3-^-v-3--4-3h4-3h4p3---|
e|-----------------------||------------------------------------|


           X8           0:40
e|--------------------------------------|
b|--------------------------------------|
g|--------------------------------------|
d|--------------------------------------|
a|-3---3-^-3-^-3-^-v-3----4-3h4-3h4p3---|
e|--------------------------------------|

Build Up 2:   X1        0:12
e|--------------------------------------------------------------------------------------------|
b|--------------------------------------------------------------------------------------------|
g|--------------------------------------------------------------------------------------------|
d|--------------------------------------------------------------------------------------------|
a|-1-1-1-1-1-1-1-1-1-1-1-1-1-1-1-1-1-1-1-1-1-1-1-1-1-1-1-1-1-1-1-1-1-1-1-1-1-1-1-1-1-1-1-1-1--|
e|--------------------------------------------------------------------------------------------|


                                    Outro:  X1   0:55
Riff 2:  X15       0:45     Play this note for the outro about X200
e|-----------------------||-----------------------------------------|
b|-----------------------||-----------------------------------------|
g|-----------------------||-----------------------------------------|
d|-----------------------||-----------------------------------------|
a|-3-3-3--3-3-3--3-3-3-x-||-3-3-3-3-3-3-3-3-3-3-3-3-3-3-3-3-3-3-3-3-|
e|-----------------------||-----------------------------------------|


Thats all! It's pretty accurate, & I know I came close to it.

|---------------------|
|  Guitar Key:        |
|                     |
| ^= Whammy Pedal In  |
| v= Whammy Pedal Out |
| p= Pull off         |
| x= Chop             |
| h= Hammer on        |
|---------------------|

----------------------------------
  Full time of song  4:07
----------------------------------
Verse 1: 45 seconds
Build Up 1: 12 seconds
Riff 1: 20 seconds
Verse 2: 46 seconds
Build Up 2: 12 seconds
Riff 2: 45 seconds
Outro: 55 seconds
----------------------------------
Добавлено: 25.09.2013
Другие материалы по этой песне:
  • Аккорды и текст

Страница создана 25.09.2013
http://primanota.ru/one-day-as-a-lion/ocean-view-chords.htm
Привет, Гость.
Предлагаем пройти революционный курс по гитаре.
Подарок от PrimaNota.Ru, забирай!