PrimaNota.ru - самый крупный в мире бесплатный архив песенных текстов, аккордов, табулатур и нот


One Bad Son - Rustbucket - таба, видео

Регистрация Запомнить меня
Войти через:  Facebook Google Twitter Vk Yandex Mail.ru

One Bad Son - Rustbucket - таба, видео

Печатать
Просмотров: 107
Уроки эстрадного вокала в Санкт-Петербурге
-------------------------------------------------------------------------------
                             Rustbucket - One Bad Son
-------------------------------------------------------------------------------
Tabbed by: Aiden D.
E-mail:

Tuning: Drop C#

Intro

e|---------------------------------------------------------------------------|
B|---------------------------------------------------------------------------|
G|---------------------------------------------------------------------------|
D|---------------------3------------------3-3----------------------3---------|
A|-------------5-5-3h5---5-------------5--3-3--------------5-5-3h5---5-------|
E|-5p3p0-0h3h5-------------5p3p0-0h3h5----3-3--5p3p0-0h3h5-------------------|

e|---------------------------------------------------------------------------|
B|---------------------------------------------------------------------------|
G|---------------------------------------------------------------------------|
D|---------------------------------------------------------------------------|
A|-------------5-------------------------------------------------------------|
E|-5p3p0-0h3h5---------------------------------------------------------------|

Verse

e|---------------------------------------------------------------------------|
B|---------------------------------------------------------------------------|
G|---------------------------------------------------------------------------|
D|-7-7-x-x-x-5-5--7-7-5/7---------7-7-x-x-x-5-5--------------3----7-7-x-x-x--|
A|-7-7-x-x-x-5-5--5-5-3/5---------7-7-x-x-x-5-5--5-5-3-0-3h5---5--7-7-x-x-x--|
E|-7-7-x-x-x-5-5-----------3-4-5--7-7-x-x-x-5-5-------------------7-7-x-x-x--|

e|---------------------------------------------------------------------------|
B|---------------------------------------------------------------------------|
G|---------------------------------------------------------------------------|
D|-5-5--7-7-5/7---------7-7-x-x-x-5-5--7-7-7---------------------------------|
A|-5-5--5-5-5/7---------7-7-x-x-x-5-5--5-5-5---------------------------------|
E|-5-5-----------3-4-5--7-7-x-x-x-5-5--0-0-0---------------------------------|

Chorus

e|---------------------------------------------------------------------------|
B|---------------------------------------------------------------------------|
G|---------------------------------------------------------------------------|
D|-7-7-x-x-x-5-5--7-7-7-x-x-3-5--7-7-x-x-x-5-5--7-7-7--7-7-x-x-x-5-5-x-x-x---|
A|-7-7-x-x-x-5-5--5-5-5-x-x-3-5--7-7-x-x-x-5-5--5-5-5--7-7-x-x-x-3-3-x-x-x---|
E|-7-7-x-x-x-5-5-----------------7-7-x-x-x-5-5--0-0-0--7-7-x-x-x-------------|

e|---------------------------------------------------------------------------|
B|---------------------------------------------------------------------------|
G|---------------------------------------------------------------------------|
D|-5-5-x-x-x-7-7--7-7-x-x-x-5-5--0-0-0--------------7-7--5-5--7-7--0-0-0-----|
A|-5-5-x-x-x-7-7--7-7-x-x-x-5-5--0-0-0--------------7-7--5-5--7-7--0-0-0-----|
E|-5-5-x-x-x-7-7--7-7-x-x-x-5-5--0-0-0--------------7-7--5-5--7-7--0-0-0-----|


************************************

| /   slide up
| \   slide down
| h   hammer-on
| p   pull-off
| ~   vibrato
| +   harmonic
| x   Mute note
| b   Bend
| pb  Pre-bend
| br  Bend release
| pbr Pre-bend release
| brb Bend release bend

************************************
Добавлено: 08.12.2015
Другие материалы по этой песне:
  • Аккорды и текст

Страница создана 08.12.2015
http://primanota.ru/one-bad-son/rustbucket-chords.htm
Привет, Гость.
Предлагаем пройти революционный курс по гитаре.
Подарок от PrimaNota.Ru, забирай!