PrimaNota.ru - самый крупный в мире бесплатный архив песенных текстов, аккордов, табулатур и нот


One Bad Son - Retribution Blues - аккорды и текст, таба, видео

Регистрация Запомнить меня
Войти через:  Facebook Google Twitter Vk Yandex Mail.ru

One Bad Son - Retribution Blues - аккорды и текст, таба, видео

Печатать
Просмотров: 64
Retribution Blues
One Bad Son
One Bad Son - Retribution Blues
Flat tune

Intro  
 D              |              |                |               ||
----------------|--------------|----------------|---------------|
-3--3-----------|-3--3---------|-3--3-----------|-3--3---3-xx-x-|
-2--2--/4-2p0h2-|-2--2--/4-2---|-2--2--/4-2p0h2-|-2--2---2-xx-x-|
-0--0-----------|-0--0---------|-0--0-----------|-0--0---0-xx-x-|
----------------|--------------|----------------|---------------|
----------------|--------------|----------------|---------------|

Verse 1
          D                                                   * -------|
Walk the line waste my songs, you had style you had charm       ----3~-|
     *       G  A5 G         A5 G   A5  G                    D  --/4---|
You were my lover,  you were my only friend in this fucking world
                         
All the light that would shine shines for me in your eyes 
            G  A5 G    A5    G                 A5  G                   D
My little liar, there wasn't one damn thing that I, I wouldn't do for you
              A       C5    G           A5    D
You say you know about the hell you put me through

Interlude
 D
-10-7-----------|10-7-----------|-------------------|---------------|
------10p7------|-----10p7------|---7-10/12\10--8-7-|7h8--7---------|
----------9(11)-|---------9(11)-|7h9----------------|--------9--7---|
----------------|---------------|-------------------|---------------|
----------------|---------------|-------------------|---------------|
----------------|---------------|-------------------|---------------|

Verse 2
         D
Hold my hand watch my band; I thought that you could understand
                 G   A5 G    A5 G   A5 G                       D
But you didn't know me,  oh you only knew what I could do for you
              A         C5  G           A5    D
You say you know about the hell you put me through
             A          C5 G         A5  D
But do you know what I'm about to do to you?

Solo   D   |   |   |   |G  A5|G  A5| G  A5| G  A5|D   |    |    |   ||

Verse 3
          D
Walk the line waste my songs, you had style you had charm
             G  A5 G         A5 G   A5  G                    D
You were my lover,  you were my only friend in this fucking world
         G         A5  G    
Oh your lies damn your eyes
      A5    G                A5     G                   D
You know I take back every promise that I ever made to you

         A                C5      G           A5    D
Do you know the nightmare you've gone and put me through?
             A        C5   G         A5  D
And do you know what I'm about to do to you?
          A           C5    G         A5  D
You have no idea what I'm about to do to you, do to you
Добавлено: 05.10.2014
Другие материалы по этой песне:
  • Аккорды и текст

Страница создана 02.04.2014
http://primanota.ru/one-bad-son/retribution-blues-chords.htm
Привет, Гость.
Предлагаем пройти революционный курс по гитаре.
Подарок от PrimaNota.Ru, забирай!