PrimaNota.ru - самый крупный в мире бесплатный архив песенных текстов, аккордов, табулатур и нот


Once Nothing - The Intimidator - таба, видео

Регистрация Запомнить меня
Войти через:  Facebook Google Twitter Vk Yandex Mail.ru

Once Nothing - The Intimidator - таба, видео

Печатать
Просмотров: 81
Уроки эстрадного вокала в Санкт-Петербурге
------------------------------------------
  The Intimidator - Once Nothing
------------------------------------------
Tabbed by: millarso (Jake Miller)
E-mail: millarso2.0@gmail.com

Tuning: Drop C

INTRO
Guitar 1
D|-----------------------------------------------------|
A|-----------------------------------------------------|
F|----------------------------------------------2------|
C|-2--4-4--4--4--4--4--4----2--4-4--4--4--------2--4-2-|
G|-2--4-4--4--4--4--4--4--4-2--4-4--4--4--4-2-4-0--4-2-|
C|-2--4-4--4--4--4--4--4--4-2--4-4--4--4--4-2-4----4-2-|
                          .               . . .
Guitar 1
D|--------------------------------------------------|
A|--------------------------------------------------|
F|-----------------------------------------5-4-2----|
C|-2--4-4--4--4--4--4--4----2--4-4--4--4-4-5-4-2-4--|
G|-2--4-4--4--4--4--4--4--4-2--4-4--4--4-4-3-2-0-4--|
C|-2--4-4--4--4--4--4--4--4-2--4-4--4--4-4-------4--|
||                        .
Guitar 2
D|--------------------------------------------------|
A|--------------------------------------------------|
F|-----------------------------------------5-4-2----|
C|------4-----4-----4-----4-2----4-----4-4-5-4-2-4--|
G|------4-----4-----4-----4-2----4-----4-4-3-2-0-4--|
C|------4-----4-----4-----4-2----4-----4-4-------4--|
                         
SECTION 1
Both Guitars
D|-----------------------------------------------------|
A|-----------------------------------------------------|
F|----------------------------------------------2------|
C|-2--4-4--4--4--4--4--4----2--4-4--4--4--------2--4-2-|
G|-2--4-4--4--4--4--4--4--4-2--4-4--4--4--4-2-4-0--4-2-|
C|-2--4-4--4--4--4--4--4--4-2--4-4--4--4--4-2-4----4-2-|
                          .               . . .

D|-------------------------------------------------------|
A|-------------------------------------------------------|
F|-----------------------------------------5-4-2---------|
C|-2--4-4--4--4--4--4--4----2--4-4--4--4-4-5-4-2-4-4-4-4-|
G|-2--4-4--4--4--4--4--4--4-2--4-4--4--4-4-3-2-0-4-4-4-4-|
C|-2--4-4--4--4--4--4--4--4-2--4-4--4--4-4-------4-4-4-4-|
                          .
REPEAT SECTION 1

SECTION 2
Guitar 1
D|---------------------------------------------------------|
A|---------------------------------------------------------|
F|---------------4--4-4--4-4-4-----------------------------|
C|-2--2-2--2-2-2-4--4-4--4-4-4-4--4-4--4-4-4-4--4-4--4-4-4-|x6
G|-2--2-2--2-2-2-2--2-2--2-2-2-4--4-4--4-4-4-4--4-4--4-4-4-|
C|-2--2-2--2-2-2---------------4--4-4--4-4-4-4--4-4--4-4-4-|
||
Guitar 2
D|---------------------------------------------------------|
A|---------------------------------------------------------|
F|---------------4--4-4--4-4-4-----------------------------|
C|-2--2-2--2-2-2-4--4-4--4-4-4-4--4-4------4------4------4-|x6
G|-2--2-2--2-2-2-2--2-2--2-2-2-4--4-4--4-4-4--4-4-4--4-4-4-|
C|-2--2-2--2-2-2---------------4--4-4--4-4-4--4-4-4--4-4-4-|
||                                     . .    . .    . .
||
Lead Guitar (listen to the track for when it comes in and out)
D|-------------------------------------------------------------------------------|
A|--------10-10-12-12b14r12-10---------------------------------------------------|
F|---9-11----------------------11-9----------------------------------------------|
C|----------------------------------11-10-9--------------------------------------|x2
G|------------------------------------------12-14---14-15/16--12---12-13h14--9---|
C|-------------------------------------------------------------------------------|

Guitar 1
D|---------------------------------------------------|
A|---------------------------------------------------|
F|-------4-------------------------------------4-----|
C|-2-----4-----4-------------------------2-----4-----|
G|-2-----2-----4-------------------------2-----2-----|
C|-2-----------4-------------------------2-----------|
||
Guitar 2
D|---------------------------------------------------|
A|---------------------------------------------------|
F|-------4-------------------------------------4-----|
C|-2-----4-----4--4------4------4--------2-----4-----|
G|-2-----2-----4--4--4-4-4--4-4-4--4-4-4-2-----2-----|
C|-2-----------4--4--4-4-4--4-4-4--4-4-4-2-----------|
                     . .    . .    . . .

SECTION 3
Both Guitars
D|------------------------|
A|------------------------|
F|------------------------|
C|-4--2--4--2--4/7--7--7--|x4
G|-4--2--4--2--4/7--7--7--|
C|-4--2--4--2--4/7--7--7--|

TRANSITION 1
D|----------------------------------------------|
A|----------------------------------------------|
F|----------------------------------------------|
C|-4-------------------------------\\\\\\\\\\\\-|
G|-4-(let-ring-for-a-few-measures)-\pick-slide\-|
C|-4-------------------------------\\\\\\\\\\\\-|

SECTION 4
Guitar 1
D|---------------------------------------------------------------------------|
A|---------------------------------------------------------------------------|
F|---------------------------------------------------------------------------|
C|-0----12---11---------------11---14---9----9---11---12---11h12p11----------|
G|-0--------------12---9h12-------------9--------------------------12-9-9/12-|
C|-0--0----0----0----0------0----0----0-9--9---9----9----9-------------------|
||    .    .    .    .      .    .    .    .   .    .    .
||
Guitar 2
D|---------------------------------------------------------------|
A|---------------------------------------------------------------|
F|---------------------------------------------------------------|
C|-0------------------------------9------------------------------|
G|-0--0-0-0-0-0-0-0-0-0-0-0-0-0-0-9--9-9-9-9-9-9-9-9-9-9-9-9-9-9-|
C|-0--0-0-0-0-0-0-0-0-0-0-0-0-0-0-9--9-9-9-9-9-9-9-9-9-9-9-9-9-9-|
      . . . . . . . . . . . . . .    . . . . . . . . . . . . . .

Guitar 1
D|-------------------------------------------------------------------|
A|-------------------------------------------------------------------|
F|-------------------------------------------------------------------|
C|-4----4---6---7---6h7p6---------6-4----4---6---7---6h7p6-----6-7-6-|
G|-4----------------------7p4-2-4---4----------------------4-7-------|
C|-4--4---4---4---4-----------2-4---4--4---4---4---4-----------------|
||    .   .   .   .           . .      .   .   .   .
||
Guitar 2
D|---------------------------------------------------------------|
A|---------------------------------------------------------------|
F|---------------------------------------------------------------|
C|-4------------------------------4------------------------------|
G|-4--4-4-4-4-4-4-4-4-4-4-4-2-4-6-4--4-4-4-4-4-4-4-4-4-4-4-4-4-4-|
C|-4--4-4-4-4-4-4-4-4-4-4-4-2-4-6-4--4-4-4-4-4-4-4-4-4-4-4-4-4-4-|
      . . . . . . . . . . . . . .    . . . . . . . . . . . . . .

REPEAT SECTION 4

SECTION 5
Both Guitars
D|---------------------------------------------------------------|
A|---------------------------------------------------------------|
F|---------------------------------------------------------------|
C|-0----2---2---4---4---6---6h7---2----2---2---4---4---6---6s7---|
G|-0------------------------------2------------------------------|
C|-0--0---0---0---0---0---0-----0-2--2---2---2---2---2---2-----2-|
      .   .   .   .   .   .     .    .   .   .   .   .   .     .

D|------------------------------------------------------------|
A|------------------------------------------------------------|
F|------------------------------------------------------------|
C|-4----4---4---6---6---7---6h7---4----4---4---6---6---4--2h4-|
G|-4------------------------------4--------------------4--2h4-|
C|-4--4---4---4---4---4---4-----4-4--4---4---4---4---4-4--2h4-|
      .   .   .   .   .   .     .    .   .   .   .   .

D|---------------------------------------------------------------|
A|---------------------------------------------------------------|
F|---------------------------------------------------------------|
C|-0----2---2---4---4---6---6h7---2----2---2---4---4---6---6s7---|
G|-0------------------------------2------------------------------|
C|-0--0---0---0---0---0---0-----0-2--2---2---2---2---2---2-----2-|
      .   .   .   .   .   .     .    .   .   .   .   .   .     .

D|------------------------------------------------------------|
A|------------------------------------------------------------|
F|------------------------------------------------------------|
C|-4----4---4---6---6---7---6h7---4----4---4---6---6---4--2h4-|
G|-4------------------------------4--------------------4--2h4-|
C|-4--4---4---4---4---4---4-----4-4--4---4---4---4---4-4--2h4-|
||    .   .   .   .   .   .     .    .   .   .   .   .
||
Extra Guitar (listen to track for repeats)
D|-----------------------------------------------|
A|-12--------------------------------------------|
F|-----14-13-14-13----------13-14-13-------------|
C|-----------------14-11-14----------14-11-14-11-|
G|-----------------------------------------------|
C|-----------------------------------------------|

Both Guitars
D|---------------------------------------------------------------|
A|---------------------------------------------------------------|
F|---------------------------------------------------------------|
C|-0----2---2---4---4---6---6h7---2----2---2---4---4---6---6s7---|
G|-0------------------------------2------------------------------|
C|-0--0---0---0---0---0---0-----0-2--2---2---2---2---2---2-----2-|
      .   .   .   .   .   .     .    .   .   .   .   .   .     .

D|-------------------------------------------------------|
A|-------------------------------------------------------|
F|-------------------------------------------------------|
C|-4----4---4---6---6---7---6h7---0--------(Gtr 2)-------|
G|-4------------------------------0--(00000000--000-0-0)-|
C|-4--4---4---4---4---4---4-----4-0--(00000000--000-0-0)-|
      .   .   .   .   .   .     .     ........  ... . .

SECTION 6
Both Guitars (all palm muted except for the 3-note power chords)
D|----------------------------------------------------|
A|----------------------------------------------------|
F|----------------------------------------------------|
C|-------------------------------------------------0--|
G|-00000000--000-0-0----00--000-0-0--00000-000-000-0--|
C|-00000000--000-0-0----00--000-0-0--00000-000-000-0--|

D|----------------------------------------------|
A|----------------------------------------------|
F|----------------------------------------------|
C|-------------------------------------------0--|x2
G|-0000000--000-0-0----00--00--00--00--000-0-0--|
C|-0000000--000-0-0----00--00--00--00--000-0-0--|

D|---------------------------------------------------|
A|---------------------------------------------------|
F|---------------------------------------------------|
C|------------------------------------------------0--|x2
G|-0000000--000-0-0----00--000-0-0--00000-000-000-0--|
C|-0000000--000-0-0----00--000-0-0--00000-000-000-0--|

D|------------------------------------------------------|
A|------------------------------------------------------|
F|------------------------------------------------------|
C|------------------------------------------------------|
G|-0000000--000-0-0----00--00--00--00--000-0-0-----0--0-|
C|-0000000--000-0-0----00--00--00--00--000-0-0-----0--0-|

SECTION 7
Guitar 1 (a little syncopated, listen to track)
D|----------------------------------------------------------------------------------------------|
A|----------------------------------------------------------------------------------------------|
F|-11-11---11-11-13-13-14-14---14-14-13-13-11-11---11-11-13-13-11-11--13--14--16--18--19--16/18-|
C|--x--x----x--x--x--x--x--x----x--x--x--x--x--x----x--x--x--x--x--x---x---x---x---x---x---x----|
G|--9--9----9--9-11-11-12-12---12-12-11-11--9--9----9--9-11-11--9--9--11--12--14--16--17--14/16-|
C|----------------------------------------------------------------------------------------------|
||
Guitar 2
D|-----------------------------------------------------------------------------------------|
A|-----------------------------------------------------------------------------------------|
F|-----7-6---4------7-6---4--------4-7-6--------4-7-6--------------------------------------|
C|-4-4-----7----4-4-----7----0-0-7--------0-0-7--------9-9-12-11-------9-9-12-11-------4-4-|
G|-4-4----------4-4----------0-0----------0-0----------9-9-------12-9--9-9-------12-9--4-4-|
C|-4-4----------4-4----------0-0----------0-0----------9-9-------------9-9-------------4-4-|

Guitar 1
D|---------------------------|
A|---------------------------|
F|-13--14--16--18--19--16/18-|
C|--x---x---x---x---x---x----|
G|-11--12--14--16--17--14/16-|
C|---------------------------|
||
Guitar 2 (hammer-ons are fast)
D|-----------------------------|
A|-----------------------------|
F|-6-7-7h9-7-6-----------4h6---|
C|-------------7--7-9-6------7-|
G|-----------------------------|
C|-----------------------------|

REPEAT SECTION 7

SECTION 8 is identical to SECTION 7 except Guitar 1 strums like this for the first bar...
Guitar 1
D|----------------------------------------------------------------------------------------------|
A|----------------------------------------------------------------------------------------------|
F|-11-11111111111111111111111313-14-14141414141414141414141313-11-11111111111111111111111313-11-|
C|--x--x-x-x-x-x-x-x-x-x-x-x-x-x--x--x-x-x-x-x-x-x-x-x-x-x-x-x--x--x-x-x-x-x-x-x-x-x-x-x-x-x--x-|
G|--9--9-9-9-9-9-9-9-9-9-9-91111-12-12121212121212121212121111--9--9-9-9-9-9-9-9-9-9-9-91111--9-|
C|----------------------------------------------------------------------------------------------|

REPEAT SECTION 8

REPEAT SECTION 1

OUTRO
Both Guitars
D|---------------------------------------------------|
A|---------------------------------------------------|
F|---------------------------------------------------|
C|-2--4-4--4--4--4--4--4----2--4-4--4--4--4--4--4----|
G|-2--4-4--4--4--4--4--4--4-2--4-4--4--4--4--4--4--4-|
C|-2--4-4--4--4--4--4--4--4-2--4-4--4--4--4--4--4--4-|
                          .                        .
D|-----------------------------------------------------------------------------------------|
A|-----------------------------------------------------------------------------------------|
F|-----------------------------------------------------------------------------------------|
C|-2--4---------4-------4-----4---2--4---------4-------4---4---4-7----2----2--4-4--4--4--4-|
G|-2--4-4-444-4-4-444-4-4-444-4-4-2--4-4-444-4-4-444-4-4-4-4-4-4-7----2----2--4-4--4--4--4-|
C|-2--4-4-444-4-4-444-4-4-444-4-4-2--4-4-444-4-4-444-4-4-4-4-4-4-7----2----2--4-4--4--4--4-|
        . ... .   ... .   ...   .      . ... .   ... .   .   .

This was a little tough to make out at times as far as track layering goes,
but this should get you pretty close. The rhythms are a little strange and
syncopated here and there, so make sure to listen to the track while you are
checking this out.
Please rate & comment.
Thanks,
millarso

************************************

| /   slide up
| \   slide down
| h   hammer-on
| p   pull-off
| ~   vibrato
| +   harmonic
| x   Mute note
| b   Bend
| pb  Pre-bend
| br  Bend release
| pbr Pre-bend release
| brb Bend release bend

************************************
Добавлено: 24.12.2015
Другие материалы по этой песне:
  • Аккорды и текст

Страница создана 24.12.2015
http://primanota.ru/once-nothing/intimidator-chords.htm
Привет, Гость.
Предлагаем пройти революционный курс по гитаре.
Подарок от PrimaNota.Ru, забирай!