PrimaNota.ru - самый крупный в мире бесплатный архив песенных текстов, аккордов, табулатур и нот


on june - The Devils Tears - таба, видео

Регистрация Запомнить меня
Войти через:  Facebook Google Twitter Vk Yandex Mail.ru

on june - The Devils Tears - таба, видео

Печатать
Просмотров: 105
-----------------------------------------------------------------------------------------------
                          On June (feat. Tesity) - The Devil's Tears
-----------------------------------------------------------------------------------------------
Tabbed by: mievaaa69


Tuning: Standart

e|--6-7--7----------------6-7--7----------------6-7--7----------------6-7--7--------------|
B|----------7------7--------------7-7----7--------------7------7--------------7-7----7----|
G|------------8-------------------------------------------8-------------------------------|
D|--6-6--6----9----9--9---6-6--6----9----9--9---6-6--6----9----9--9---6-6--6----9----9--9-|
A|----------------------------------------------------------------------------------------|
E|----------------------------------------------------------------------------------------|

Play this through the whole song.
Добавлено: 26.06.2016
Другие материалы по этой песне:
  • Аккорды и текст

Страница создана 26.06.2016
http://primanota.ru/on-june/devils-tears-chords.htm
Привет, Гость.
Предлагаем пройти революционный курс по гитаре.
Подарок от PrimaNota.Ru, забирай!