PrimaNota.ru - самый крупный в мире бесплатный архив песенных текстов, аккордов, табулатур и нот


Omfg - Hello - таба, видео

Регистрация Запомнить меня
Войти через:  Facebook Google Twitter Vk Yandex Mail.ru

Omfg - Hello - таба, видео

Печатать
Просмотров: 293
Уроки эстрадного вокала в Санкт-Петербурге
-------------------------------------------------------------------------------
                             OMFG - Hello
-------------------------------------------------------------------------------

Tabbed by: Gautierfontaine
E-mail: gautier.fontaine@free.fr


Intro :

e|-3-0---0---------|
B|-----3---3-1-----|
G|-------------2---|
D|-----------------|
A|-----------------|
E|-----------------|


Song :

e|-------0-1-1-1-0---0--------0-3-3-0-3-0----------0-1-1-1-0---0-----0-----------------|
B|---0-1-----------3----1-1-3------------------0-1-----------3---1-3-------------------|
G|-2---------------------------------------2-2--------------------------0-0---0---2----|
D|--------------------------------------------------------------------------2---2------|
A|-------------------------------------------------------------------------------------|
E|-------------------------------------------------------------------------------------|
Добавлено: 22.06.2016
Другие материалы по этой песне:
  • Аккорды и текст

Страница создана 22.06.2016
http://primanota.ru/omfg/hello-chords.htm
Привет, Гость.
Предлагаем пройти революционный курс по гитаре.
Подарок от PrimaNota.Ru, забирай!