PrimaNota.ru - самый крупный в мире бесплатный архив песенных текстов, аккордов, табулатур и нот


Omd - Georgia - текст песни, бас-таба, видео

Регистрация Запомнить меня
Войти через:  Facebook Google Twitter Vk Yandex Mail.ru

Omd - Georgia - текст песни, бас-таба, видео

Печатать
Просмотров: 53
Новый альбом группы 'Черный Кузнец' по культовому сериалу 'Сверхъестественное'!
Bass Start - 00:10


[Intro]
G|-------------|------------|-------------|------------|
D|-------------|------------|-------------|------------|
A|-5--5-3------|-5--5-3-----|-5--5-3------|-5--5-3-----|
E|--------5---5|--------5---|--------5---5|--------5---|

[Verse 1]
G|-------------|------------|-------------|------------| (x8)
D|-------------|------------|-------------|------------|
A|-5--5-3------|-5--5-3-----|-5--5-3------|-5--5-3-----|
E|--------5---5|--------5---|--------5---5|--------5---|

G|-------------|------------|
D|-------------|------------|
A|-5--5-3------|-5--5-3-----|
E|--------5---5|--------5---|

[Instrumental]
G|----------------|----------------|----------------|----------------| (x2)
D|-3-3-3-3-3-3-3-3|-3-3-3-3-3-3-3-3|-3-3-3-3-3-3-3-3|-3-3-3-3-3-3-3-3|
A|----------------|----------------|----------------|----------------|
E|----------------|----------------|----------------|----------------|

[Verse 2]
G|-------------|------------|-------------|------------| (x4)
D|-------------|------------|-------------|------------|
A|-5--5-3------|-5--5-3-----|-5--5-3------|-5--5-3-----|
E|--------5---5|--------5---|--------5---5|--------5---|

[Instrumental]
G|----------------|----------------|----------------|----------------| 
D|-3-3-3-3-3-3-3-3|-3-3-3-3-3-3-3-3|-3-3-3-3-3-3-3-3|-3-3-3-3-3-3-3-3|
A|----------------|----------------|----------------|----------------|
E|----------------|----------------|----------------|----------------|

G|----------------|----------------|----------------|----------------|---|
D|-3-3-3-3-3-3-3-3|-3-3-3-3-3-3-3-3|-3-3-3-3-3-3-3-3|-3-3-3-3-3-3-3-3|---|
A|----------------|----------------|----------------|----------------|-5-|
E|----------------|----------------|----------------|----------------|---|

[Outro] (02:02 ~ End) - No Bass Guitar
G|--------------|
D|--------------|
A|----(rest)----|
E|--------------|
Добавлено: 15.05.2018
Другие материалы по этой песне:
  • Аккорды и текст

Страница создана 29.04.2012
http://primanota.ru/omd/georgia-chords.htm
Привет, Гость.
Предлагаем пройти революционный курс по гитаре.
Подарок от PrimaNota.Ru, забирай!