PrimaNota.ru - самый крупный в мире бесплатный архив песенных текстов, аккордов, табулатур и нот


Omar Rodriguez-lopez - Las Flores Con Limn - таба, видео

Регистрация Запомнить меня
Войти через:  Facebook Google Twitter Vk Yandex Mail.ru

Omar Rodriguez-lopez - Las Flores Con Limn - таба, видео

Печатать
Просмотров: 56
In fact this song is quite straight forward, it's always the same chords for the verse 
also the chorus is the same. But it's a really great song, so check it out!

Verse:
It's basically Dm, A#Maj7, A. I think looks like that:

e|-1---------------0------|-1-------------------|
B|-3------------3--2------|-3-------------------|
G|-2------------2--2------|-2-------------------|
D|-0------------3--2------|-0-------------------|
A|-----------------0------|----------1--0~------|
E|------------------------|---------------------|

Chorus

e|-------------------------------------------------------|
B|-------------------------------------------------------|
G|-------------------------------------------------------|
D|--------------------------0--------------------------0-|
A|--1-0--------3-2------------1-0----------3-2-----------|
E|-------------------------------------------------------|

instead of the note "D", a Dm is played when the chorus changes to another part.

Bridge
It gets a little bit trickier here. Not sure if the chords are the right ones here, but 
some additional tones are going on here as well.
    Dm     Em>C#m    Dm>A#     C>A
e|----------------------------------------------------------------------|
B|--6------8-5-------6-3-------5-2------------6-----8-5-----6-3-----5-2-|
G|--7------9-6-------7-3-------5-2------10-9--7-----9-6-----7-3-----5-2-|
D|--7------9-6-------7-3-------5-2------10-9--7-----9-6-----7-3-----5-2-|
A|--5------7-4-------5-1-------3-0------8--7--5-----7-4-----5-1-----3-0-|
E|----------------------------------------------------------------------|

e|------|
B|------|
G|-10-9-|
D|-10-9-|
A|-8--7-|
E|------|

You will figure it out, watch out for the timing! Enjoy this great song!
As a special service, here are the lyrics : )

Cuando no hay
Se llena de agua
A donde mas iré
Si no hay mas que buscar

No saber si fue un error
No te pido explicaciones
Lo que es
Jamas sera
En el hoy
hay mil razones

Uno mas
eres igual a los demás
y no hay... otra voz
en el otro hace frio
y será otro el desenlace

No saber si fue un error
No te pido explicaciones
lo que es
jamas será
en el hoy
hay mil razones

Esperar las canciones
para que cada cual
delatar decepciones
desde fortunas mas,
¿quien cerró las calles?

No saber si fue un error
No te pido explicaciones
lo que es
jamas sera
en el hoy
hay mil razones

No sabras si hice mal
pedirás dos mil perdones
lo que el tiene no valdra
la sequia de las flores
Добавлено: 26.03.2016
Другие материалы по этой песне:
  • Аккорды и текст

Страница создана 26.03.2016
http://primanota.ru/omar-rodriguez-lopez/las-flores-con-limn-chords.htm
Привет, Гость.
Предлагаем пройти революционный курс по гитаре.
Подарок от PrimaNota.Ru, забирай!