PrimaNota.ru - самый крупный в мире бесплатный архив песенных текстов, аккордов, табулатур и нот


Omar And The Howlers - Black Bottom - аккорды и текст, видео

Регистрация Запомнить меня
Войти через:  Facebook Google Twitter Vk Yandex Mail.ru

Omar And The Howlers - Black Bottom - аккорды и текст, видео

Печатать
Просмотров: 368
Уроки эстрадного вокала в Санкт-Петербурге
Black Bottom
Omar And The Howlers
-------------------------------------------------------------------------------
                        Black Bottom - Omar & The Howlers
-------------------------------------------------------------------------------

Tabbed by: Tossik
Email: t.ossik@yahoo.com


Here's a great song! If you can't figure out the rhythm just listen to it.

Intro:

e|------------------------------------0------------3--3------|
G|------------------------------------0------------3--3------|
B|------------------------------------0------------0--0------|
D|-------------------0-----2-----2------------------------2--|
A|------------0--2h-----2--------2---------0----2---------2--|
E|------0--3---------------------0---------0----3---------0--|


e|------------------------------------0------------3--3------|
G|------------------------------------0------------3--3------|
B|------------------------------------0------------0--0------|
D|-------------------0-----2-----2------------------------2--|
A|------------0--2h-----2--------2---------0----2---------2--|
E|------0--3---------------------0---------0----3---------0--|


e|------------------------------------0------------3--3------|
B|------------------------------------1------------3--3------|
G|------------------------------------2------------0--0------|
D|-------------------0-----2-----2------------------------2--|
A|------------0--2h-----2--------0---------0----2---------0--|
E|------0--3-------------------------------0----3------------|


e|------------------------------------0------------3--3------|
G|------------------------------------0------------3--3------|
B|------------------------------------0------------0--0------|
D|-------------------0-----2-----2------------------------2--|
A|------------0--2h-----2--------2---------0----2---------2--|
E|------0--3---------------------0---------0----3---------0--|

e|------------------------------------2-------2--------0-----|
B|------------------------------------4-------4--------2-----|
G|------------------------------------4-------4--------2-----|
D|-------------------0-----2-----4------------4--------2-----|
A|------------0--2h-----2--------2------------2--------0-----|
E|------0--3---------------------0------------0--------0-----|


e|------------------------------------0------------3--3------|
G|------------------------------------0------------3--3------|
B|------------------------------------0------------0--0------|
D|-------------------0-----2-----2------------------------2--|
A|------------0--2h-----2--------2---------0----2---------2--|
E|------0--3---------------------0---------0----3---------0--|


                       Em            G         Em      G    Em
In the shadow of the city where the sun don't shine
                G        Am              G     Em      G    Em
Where it's a constant struggle just to stay  alive
             G        Bb          A     
You hear a shot ring out,
                   Em
somebody else has died
                          Em      G      Em
Ain't no good in Black Bottom,
          G    Em     G    Em
it's an evil place 
         G        Am     G    Am
Where a man can vanish,
             G     Em
without a single trace

       G         Bb              
Talk about the blues,
                     A
people down there got 'em
                          Em    G    Em
'Cause you ain't gotta chance,
            G              Em
if you're down in Black Bottom

If you live in Black Bottom,
you don't walk at night
'Cause some cat might cut you,
just to spark a fight

Talk about the blues,
people down there got 'em
'Cause you ain't gotta chance,
if you're down in Black Bottom

| /  slide up
| \  slide down
| h  hammer-on
| p  pull-off
| ~  vibrato
| +  harmonic
| x  Mute note
===============================================================================
Hope I got it right :D 
 
Добавлено: 02.05.2012
Другие материалы по этой песне:
  • Аккорды и текст

Страница создана 02.05.2012
http://primanota.ru/omar-and-the-howlers/black-bottom-chords.htm
Привет, Гость.
Предлагаем пройти революционный курс по гитаре.
Подарок от PrimaNota.Ru, забирай!