PrimaNota.ru - самый крупный в мире бесплатный архив песенных текстов, аккордов, табулатур и нот


Om - Cremation Ghat I - бас-таба, видео

Регистрация Запомнить меня
Войти через:  Facebook Google Twitter Vk Yandex Mail.ru

Om - Cremation Ghat I - бас-таба, видео

Печатать
Просмотров: 137
-------------------------------------------------------------------------------
                               Cremation Ghat - Om
-------------------------------------------------------------------------------

Tabbed By : Murija

Tuning: Standard

G|----------------4-6-7-4h6----------------4-6-7-4-6-4h6---------------------|
D|----------6---6--------------------6---6-----------------------------------|
A|--4-7-4-7---7----------------4-7-4---7-------------------------------------|
E|---------------------------------------------------------------------------|

or

G|---------------------------------------------------------------------------|
D|---------------------9-11-12-9h11-------------------9-11-12-9-11-9h11------|
A|------------11----11-----------------------11----11------------------------|
E|--9-12-9-12----12-------------------9-12-9----12---------------------------|

Listen to the song for variations and rythm


---------------
| h  hammer-on
---------------

http://www.omvibratory.com/
Добавлено: 24.08.2013
Вам также может быть интересно:
Другие материалы по этой песне:
  • Аккорды и текст

Страница создана 24.08.2013
http://primanota.ru/om/cremation-ghat-i-chords.htm
Привет, Гость.
Предлагаем пройти революционный курс по гитаре.
Подарок от PrimaNota.Ru, забирай!