PrimaNota.ru - самый крупный в мире бесплатный архив песенных текстов, аккордов, табулатур и нот


Om - At Giza - бас-таба, видео

Регистрация Запомнить меня
Войти через:  Facebook Google Twitter Vk Yandex Mail.ru

Om - At Giza - бас-таба, видео

Печатать
Просмотров: 56
So this is an amazing song by one of my favourite bands. It's all bass and really fun to write the tabs for,
even if some of the parts where the fuzz comes inn are kinda hard to read. But here we go. This is m first 
ever bass tab. (I usually play guitar so be gentle)

Tabbed by: henning
Tuning: Standard

Riff 1
(00:24-00:59)
G|---------5-|---------5-|---------5---|---------5-|
D|---5h7-7---|---5h7-7---|---5h7-7---7-|---5h7-7---|
A|-0-0-----0-|-0-0-----0-|-0-0-----0---|-0-0-----0-|
E|-----------|-----------|-------------|-----------|

Riff 2
(01:00-01:34)
Some wizard shit I haven't figured out yet.

Riff 1
(01:35-02:10)

Riff 2
(02:11-02:44)

Riff 1
(02:45-03:16)

Riff 2
(03:17-03:54)

Riff 3
(04:01-05:20)
G|------------------------------------------------------|
D|---5h7--7---7--5h7--7---7---7-8-7-8-8-7-5-7-7-8-5-7-7-|
A|-0-0--0-0-0-0--0--0-0-0-0---0-0-0-0-0-0-0-0-0-0-0-0-0-|
E|------------------------------------------------------|

G|--------------------------------------------------------|
D|-5h7--7---7--5h7--7---7-7-8-5-7-5-5-5-5-5-7-5-7-8-5-7-7-|
A|-0--0-0-0-0--0--0-0-0-0-0-0-0-0-0-0-0-0-0-0-0-0-0-0-0-0-|
E|--------------------------------------------------------|

Riff 2
(05:21-05:54)

Riff 3
(05:55-06:31)

Riff 2
(06:32-07:06)

Riff 3
(07:07-07:40)

Riff 2
(07:41-08:17)

Riff/Part 4
(08:20-10:04)
G|---------------------------------------|
D|---7---7---7---7---7---7---7---7---0-3-|
A|-0---0---0---0---0---0---0---0---0-----|
E|---------------------------------------|

G|---------------------------------------------------------|
D|---7---7---7---7---7---7---7--5/7-5----------------------|
A|-0---0---0---0---0---0---0----------7-5---0-3--------3-0-|
E|----------------------------------------0----------------|


G|---------------------------------------------------------|
D|---7---7---7---7---7---7---7--0-7-5----------------------|
A|-0---0---0---0---0---0---0-----------0-3-------------3-0-|
E|---------------------------------------------------------|

G|-----|
D|---7-| x8
A|-0---|
E|-----|

Riff/Part 5
(10:05-11:52)

G|-----------------------------------------------------------------------|
D|---------------------------------------------------------------------7-|
A|-0-3-0--0----------3-0-0--------0-3------3-0-----0-0--------3---0-0----|
E|---------------0-3------------0--------------0-3----------0---3--------|

G|------------------------------------------------------------------------|
D|----------------7-5---------------------------------------7-5-----------|
A|-----3-0-0----------5h7-3----0-3------3--0--------------------7---3-0-0-|
E|-0-3-----------------------0---------------3--0--0-3------------0-------|

G|----------------------------------------------------------------------|
D|----------------------------------------------------------------------|
A|-----3-0-0------7-5-3---0-3------3-0-0-------0----------------------0-|
E|-0-3------------------0----------------3-0-3--------3-3-3-3-3-3-3-3---|

Riff 3
(11:53-13:10)

Riff/Part 6
(13:11-song end)
Now you stomp that fucking fuzz and deliver that crushing first heavy blow in the song!
This part is just different variations of RIFF 5, and kinda hard to tab some of the more muddy parts,
but here is the parts wrote down:

G|--------------------------------------------------------------5-5----------------|
D|------------------------------------7-5-------------------5-7-----7-5------------|
A|-0-3--------3-0--------3---0-0----------7----3-0-0------5-7-----------7-5-3--0-3-|
E|----------3----------3---3-----------------3-------------------------------------|

G|-----------------------------5-5-5-----------|
D|-------------------------5-7-------7-5-------|
A|-3--5-5-5--0-3-0-------7---------------7-5-3-|
E|---------------------------------------------|


| /  slide up
| \  slide down
| h  hammer-on
| p  pull-off
| ~  vibrato
| +  harmonic
| x  Mute note
===============================================================================
Добавлено: 21.06.2016
Вам также может быть интересно:
Другие материалы по этой песне:
  • Аккорды и текст

Страница создана 21.06.2016
http://primanota.ru/om/at-giza-chords.htm
Привет, Гость.
Предлагаем пройти революционный курс по гитаре.
Подарок от PrimaNota.Ru, забирай!