PrimaNota.ru - самый крупный в мире бесплатный архив песенных текстов, аккордов, табулатур и нот


Olli Schulz - So Muss Es Beginnen - аккорды и текст, видео

Регистрация Запомнить меня
Войти через:  Facebook Google Twitter Vk Yandex Mail.ru

Olli Schulz - So Muss Es Beginnen - аккорды и текст, видео

Печатать
Просмотров: 104
So Muss Es Beginnen
Olli Schulz
-------------------------------------------------------------------------------
                      So muss es beginnen - Olli Schulz
-------------------------------------------------------------------------------
Tabbed by: Patrick

Tuning: Standard

Capo: IV

Chords: D - A

Riff/Refrain:

e|---------------------------------------------------|
B|---------------------------------------------------|
G|---------------------------------------------------|
D|--9-9-9-9-9-9-9-9-9-9-9-9-9-/-11-11-11-11-11-11----|
A|--9-9-9-9-9-9-9-9-9-9-9-9-9-/-11-11-11-11-11-11----|
E|--7-7-7-7-7-7-7-7-7-7-7-7-7-/--9--9--9--9--9--9----|
    Und meine Helden sind alt, Meine Träume dahin  

e|---------------------------------------------------------------------------|
B|---------------------------------------------------------------------------|
G|---------------------------------------------------------------------------|
D|--13-13-13-13-13-13-13-13-13--9--------------------------------------------|
A|--13-13-13-13-13-13-13-13-13--9--------------------------------------------|
E|--11-11-11-11-11-11-11-11-11--7--------------------------------------------|
    Ich weiß nicht wie es aufhört,  aber so muss es beginnen  


Den ganzen Song über kann man D und A mit kleinen hammer-ons spielen.

Intro: D - A - D - A - D - A - D - A 


D                                        A
Ich zähl' bis zehn und halt die Luft an
D                           A
Und warte ab was gleich passiert
D                        
Du musst dich nicht wundern
A
Die Funken werden bunt sein
D                            A
Es ist mein Herz das explodiert


D                            A
Ich möchte kostenloses Popcorn
D                          A
Für jedes Kind in dieser Stadt
D                                          A 
Für die chronisch ironischen gibt's einen Film wo sie heulen
D                                A
Mach dich bereit ich hol' dich ab


Refrain:
         Und meine Helden sind alt
         Meine Träume dahin
         Ich weiß nicht wie es aufhört
         Aber so muss es beginnen

 
D                                        A
Ich steh wie ein Gangster vor deinem Fenster
D                                A
Und ich schrei' laut: 
Добавлено: 23.08.2015
Другие материалы по этой песне:
  • Аккорды и текст

Страница создана 23.08.2015
http://primanota.ru/olli-schulz/so-muss-es-beginnen-chords.htm
Привет, Гость.
Предлагаем пройти революционный курс по гитаре.
Подарок от PrimaNota.Ru, забирай!