PrimaNota.ru - самый крупный в мире бесплатный архив песенных текстов, аккордов, табулатур и нот


Olivia Tremor Control - A Place We Have Been To - бас-таба, видео

Регистрация Запомнить меня
Войти через:  Facebook Google Twitter Vk Yandex Mail.ru

Olivia Tremor Control - A Place We Have Been To - бас-таба, видео

Печатать
Просмотров: 21
Авторы: The Olivia Tremor Control

-------------------------------------------------------------------------------
           A PLACE WE HAVE BEEN TO - The Olivia Tremor Control
-------------------------------------------------------------------------------
Tabbed by: acm321
E-mail: acm3212002@gmail.com

Tuning: Standard

// Note: Each bar here is two measures; I didn't want to split up the phrasing.

// Tip: The rhythms in this track can get more complicated than what I can show in a 
tab, don't even try
// to learn it without listening to the original recording. This tab shouldn't be too 
difficult but you need to
// have good timekeeping to keep up.

// The first note here is a pickup from the fourth measure after the guitar plays the 
intro lick the first time.

G|----|--------------------------------|----------------------2-4-0-----|
D|----|0-0-0-0-3-3-3-3-3-3-3-3---3-5---|0-0-0-0-3-3-3-3-3-3-------------|
A|--3-|------------------------------3-|--------------------------------|
E|----|--------------------------------|--------------------------------|

G|--------------------------------|---------------------------------|
D|----------3---2---0-------------|--------2-5-------0---1---2------|
A|-------3h5------------3---2-----|0---0--4------4----------------2-|
E|3---3-------------------------3-|---------------------------------|

G|----------3-----5/7-5-3---------|----------------------------------|
D|-------3h5----------------5-----|-----------3----------------------|
A|3---3---------------------------|-------3h5------------------------|
E|--------------------------------|3---3-----------0-1-0-1-0-1-0-1-2-|

G|--------------------------------|---------------------------------|
D|----------3---2---0-------------|--------2-5-------0---1---2------|
A|-------3h5------------3---2-----|0---0--4------4----------------2-|
E|3---3-------------------------3-|---------------------------------|

G|----------3---5-5/7-5-3---------|----------------------------------|
D|-------3h5----------------5-----|-----------5----------------------|
A|3---3---------------------------|-------3h5------------------------|
E|--------------------------------|3---3-----------0-1-0-1-0-1-0-1-2-|


G|--------------------------------|--------------------------------|
D|--------------------------------|--------------------------------|
A|0-0-----4-4-----3-3-------------|--------5-5---------------------|
E|------------------------2-2-----|3-3-------------3-3-----4-4-----|

G|--------------------------------|----------------------2-4-0-----|
D|--------------------------------|------------3-3-5-3-5-----------|
A|0-0-----4-4-----3-3-------------|--------5-5---------------------|
E|------------------------2-2-----|3-3-----------------------------|

G|--------------------------------|----------------0---2---3---4---|
D|--------0---2---0---------------|----2---3---4-------------------|
A|0---4---------------4---2---4---|3-------------------------------|
E|--------------------------------|--------------------------------|

G|----------------------2-4-0-----|----------------------------|
D|0-0-0-0-3-3-3-3-3-3-------------|0-0-------------------------|
A|--------------------------------|--------0-0-----------2-3-4-|
E|--------------------------------|----------------3-3---------|

G|-------------------------------|0-0-0-0-0-0-0-0-0-0-0-0-0-0-0-0-|
D|0-0------------------------1/5-|--------------------------------|
A|-------0-0---------------------|--------------------------------|
E|-------------0-1-0-1-0-1-0-----|--------------------------------|

G|2-2-2-2-2-2-2-2-2-2-2----------|--------------------------------|
D|-------------------------------|----------------2---3---4---5---|
A|----------------------0--1--2--|3-3-3-3-3-3-3-3-----------------|
E|-------------------------------|--------------------------------|

G|--------------------------------|--------------------------------|
D|--------------------------------|--------3------------3----------|
A|--------------------------------|----2-------2------2-------2----|
E|3-3-3-3-3-3-3-3-0-1-0-1-0-1-0-1-|3---------------3-------------3-|

G|--------------------------------|--------3------5/7--5--3---------|
D|--------5------------5----------|----5-------5--------------5-----|
A|0---4-------4---0--4-------4----|3--------------------------------|
E|------------------------------3-|---------------------------------|

G|----------------------------------|
D|-----------------0-0-0-0-3-3-3----|
A|----------------------------------|
E|3---3----3-3---3------------------|

G|--------------------------------|--------------------------------|
D|--------------------------------|--------------------------------|
A|0-0-----4-4-----3-3-------------|--------5-5---------------------|
E|------------------------2-2-----|3-3-------------3-3-----4-4-----|

G|--------------------------------|----------------------2-4-0-----|
D|--------------------------------|------------3-3-5-3-5-----------|
A|0-0-----4-4-----3-3-------------|--------5-5---------------------|
E|------------------------2-2-----|3-3-----------------------------|

G|--------------------------------|----------------0---2---3---4---|
D|--------0---2---0---------------|----2---3---4-------------------|
A|0---4---------------4---2---4---|3-------------------------------|
E|--------------------------------|--------------------------------|

G|----------------------2-4-0-----|----------------------------|
D|0-0-0-0-3-3-3-3-3-3-------------|0-0-------------------------|
A|--------------------------------|--------0-0-----------2-3-4-|
E|--------------------------------|--------------0-3-3---------|

G|-----------------------------------|----------------------------|
D|0-0--------------------------------|0-0-------------------------|
A|-------0-0-------------------------|--------0-0-----------2-3-4-|
E|-------------0-1-0-1-0-1-0-1-0-1-0-|----------------3-3---------|

G|-------------------------------|------------------------------------|------------------------||
D|0-0----------------------------|--------------------3-2-3-2-3-2-3-2-|3-2-3-2-3-2-------------||
A|-------0-0---------------------|------------------------------------|--------------2///14*---||
E|-------------0-1-0-1-0-1-0-1-0-|1-0-1-0-1-0-1-0-1-0-----------------|------------3-----------||

*This slide isn't actually very long, but it goes a full octave. Listen to the end of the
 album version for how to do it; playing the 3 on the E string right before it is 
important to make the slide
 sound even longer. You can try actually sliding from the 3 to the 6 before doing the 
slide on the A string
 but making them sound cohesive will be difficult. This might be easier on a fretless.

| /  slide up
| \  slide down
| h  hammer-on
| p  pull-off
| ~  vibrato
| +  harmonic
| x  Mute note
===============================================================================
Добавлено: 22.12.2015
Другие материалы по этой песне:
  • Аккорды и текст

Страница создана 22.12.2015
http://primanota.ru/olivia-tremor-control/place-we-have-been-to-chords.htm
Привет, Гость.
Предлагаем пройти революционный курс по гитаре.
Подарок от PrimaNota.Ru, забирай!