PrimaNota.ru - самый крупный в мире бесплатный архив песенных текстов, аккордов, табулатур и нот


Olivia Newton-John - Hopelessly devoted to you grease - бас-таба, видео

Регистрация Запомнить меня
Войти через:  Facebook Google Twitter Vk Yandex Mail.ru

Olivia Newton-John - Hopelessly devoted to you grease - бас-таба, видео

Печатать
Просмотров: 79
Уроки эстрадного вокала в Санкт-Петербурге


Hopelessly Devoted To You(Grease).btab
Olivia Newton John
TablEdited by Jan Bjorklund
Tuning : E A D G 	Time Signature: 6/8
 |           |            |           |            |           |            
|------------------------|------------------------|------------------------|
|------------------------|------------------------|------------------------|
|5---------------5---4---|--------------------4---|5---------------5---4---|
|------------------------|5---------------5-------|------------------------|

 |           |            |           |            |           |            
|------------------------|------------------------|------------------------|
|------------------------|------------------------|------------5-----------|
|--------------------4---|5-----------7-----------|8-----------------------|
|5---------------5-------|------------------------|------------------------|

 |           |            |           |     Guess   mine is not|the         
|------------------------|------------------------|------------------------|
|7-----------------------|------------------------|------------------------|
|------------------------|------------------------|------------------------|
|------------------------|------------------------|5---------------5---7---|

 first heart |            |           broken...    |           |            
|------------------------|------------------------|------------------------|
|------------------------|------------------------|------------------------|
|4-------------------4---|5-----------------------|5---------------5---4---|
|------------------------|----------------5---7---|------------------------|

 |           |            |           |            |           |            
|------------------------|------------------------|------------------------|
|------------------------|----------------4---6---|7---------------4-------|
|----------------4---5---|7-----------------------|--------------------7---|
|7-----------------------|------------------------|------------------------|

 |           |            I'm not the first to     know        |            
|------------------------|------------------------|------------------------|
|------------------------|--------------------2---|4-------------------4---|
|------------------------|0---------------2h4-----|----------------4-------|
|5---------------0---2---|------------------------|------------------------|

 there's just|no gettin'  over        |            you         |            
|------------------------|------------------------|------------------------|
|5-------------------5---|4-----------------------|------------------------|
|----------------4-------|----------------4-------|2---------------4---5---|
|------------------------|--------------------2---|------------------------|

 |           |            |           |            |           |     I      
|------------------------|------------------------|------------------------|
|------------------------|------------------------|------------2-----------|
|2---------------4---5---|4---------------4---3---|2---------------2-------|
|------------------------|------------------------|--------------------0---|

 know I'm just a          fool who's  |            willing
   |            
|------------------------|------------------------|------------------------|
|------------------------|------------------------|------------------------|
|------------------------|4-------------------4---|5-----------------------|
|5---------------5---7---|------------------------|----------------5---7---|

 |           |     To     sit around  |            and wait for|            
|------------------------|------------------------|------------------------|
|------------------------|------------------------|----------------4---6---|
|5---------------5---4---|----------------4---5---|7-----------------------|
|------------------------|7-----------------------|------------------------|

 |           you...       |           |            But baby can't you       
|------------------------|------------------------|------------------------|
|7---------------4-------|------------------------|------------------------|
|--------------------7---|------------------------|----------------4---7---|
|------------------------|5---------------0---2---|5-----------------------|

 see...      |            |           |            |           |            
|------------------------|------------------------|------------------------|
|4-------------------4---|5-------------------5---|4-----------------------|
|----------------4-------|----------------4-------|----------------4-------|
|------------------------|------------------------|--------------------2---|

 |           |            |           |            I'm hopelessly de -      
|------------------------|------------------------|------------------------|
|------------------------|------------------------|------------------------|
|2---------------4---5---|2---------------4---5---|4---------------4---3---|
|------------------------|------------------------|------------------------|

 vot   -   ed|            to you      |            |           |            
|------------------------|------------------------|------------------------|
|------------2-----------|0-----------2-----------|3-----------5-----------|
|2-----------------------|------------------------|------------------------|
|------------------------|------------------------|------------------------|

 |           But          now there's |            nowhere to  |            
|------------------------|------------------------|------------------------|
|7/------5---------------|------------------------|------------------------|
|------------------------|----------------0---1---|----------------0---1---|
|------------5-----------|3-----------------------|3-----------------------|

 hide since you           |           |            |           |            
|------------------------|------------------------|------------------------|
|------------------------|------------------------|----------------0---2---|
|----------------0---1---|----------------0---1---|3-----------------------|
|3-----------------------|3-----------------------|------------------------|

 |           |            |           |            |           |            
|------------------------|----------------0-------|2---------------2-------|
|3---------------0-------|3-------------------3---|------------------------|
|--------------------3---|------------------------|--------------------0---|
|------------------------|------------------------|------------------------|

 |           |            |           |            |           |            
|------------------------|------------------------|------------------------|
|------------------------|------------------------|------------------------|
|5-----------5-----------|----------------0---1---|----------------0---1---|
|----------------5---4---|3-----------------------|3-----------------------|

 |           |            |           |            |           |            
|------------------------|------------------------|------------------------|
|------------------------|------------------------|------------------------|
|----------------0---1---|3---------------3---3---|5-------------------5---|
|3-----------------------|------------------------|----------------5-------|

 |           |            |           |            |           |            
|------------------------|------------------------|------------------------|
|------------------------|------------------------|------------------------|
|4-------------------4---|3-------------------3---|2---------------2---0---|
|----------------5-------|----------------5-------|------------------------|

 |           |            |           |            |           |            
|------------------------|------------------------|------------------------|
|------------------------|------------------------|------------------------|
|----------------0---1---|3---------------3---3---|5-------5---7-------7---|
|3-----------------------|------------------------|------------------------|

 |           |            |           |            |           |            
|------------------------|------------------------|------------------------|
|------------5-------5---|------------------------|------------------------|
|8-------8---------------|0-----------------------|------------12/-----7---|
|------------------------|------------------------|------------------------|

 |           |            |           |            |           |            
|------------------------|------------------------|------------------------|
|------------------------|------------------------|------------------------|
|------------------------|4-------------------4---|5-----------------------|
|5---------------5---7---|------------------------|----------------5---7---|

 |           |            |           |            
|------------------------|------------------------|
|------------------------|------------------------|
|5---------------5---4---|----------------4---5---|
|------------------------|7-----------------------|


Created with TablEdit http://www.tabledit.com/


Добавлено: 22.01.2014
Другие материалы по этой песне:
  • Аккорды и текст

Страница создана 22.01.2014
http://primanota.ru/olivia-newton-john/hopelessly-devoted-to-you-grease-chords.htm
Привет, Гость.
Предлагаем пройти революционный курс по гитаре.
Подарок от PrimaNota.Ru, забирай!