PrimaNota.ru - самый крупный в мире бесплатный архив песенных текстов, аккордов, табулатур и нот


Olivia Jean - Mistakes - таба, видео

Регистрация Запомнить меня
Войти через:  Facebook Google Twitter Vk Yandex Mail.ru

Olivia Jean - Mistakes - таба, видео

Печатать
Просмотров: 44
-------------------------------------------------------------------------------
                             Mistakes - Olivia Jean
-------------------------------------------------------------------------------
Tabbed by:sir-rex-a-lot

Tuning:Standard

(intro)(Piano part for guitar)
e|-----------------------------------------|
B|-----------------------------------------|
G|----6-7-6------6-7-6----4-----4-5~-4-2---|x2
D|--7----------7---------5--7--5-----------|
A|-----------------------------------------|
E|-----------------------------------------|                                 
 |(Intro)(Guitar)                          |
e|-----------------------------------------|
B|-----------------------------------------|
G|-------------7~-------8~------7~---------|
D|-7~----------7~-------8~------7~---------|x2
A|-7~----------5~-------6~------5~---------|
E|-5~--------------------------------------|
 |(Intro)(Bass)(Varies slightly)           |
e|---------------------------------------------------------------------------|
B|---------------------------------------------------------------------------|
G|---------------------------------------------------------------------------|
D|---------------------------------------------------------------------------|x1
A|-------------5~-------6~------5~------------------2~/5~-------6~--------5~-|
E|-5~---------------------------------------5~-------------------------------|

(intro)(Piano part for guitar)
e|-------------------------------------------------------|
B|-------------------------------------------------------|
G|----------6-7-6------6-7-6--------4---------4-5~-4-2---|x2
D|--------7----------7-------------5--7------5-----------|
A|-------------------------------------------------------|
E|-------------------------------------------------------|                                 
 |(Intro)(Guitar)                                        |
e|-------------------------------------------------------|
B|-------------------------------------------------------|
G|-------------------7-7----------8-8---------7-7--------|
D|-------7-7---------7-7----------8-8---------7-7--------|x2
A|-------7-7---------5-5----------6-6---------5-5--------|
E|-------5-5---------------------------------------------|
|(Chorus)(Bass)                                          |
e|-------------------------------------------------------|
B|-------------------------------------------------------|
G|-------------------------------------------------------|
D|-------------------------------------------------------|x2
A|------------0-2-4-5-5-----0-2-4-6-6---0-2-4-5-5--------|
E|-0-2-4-5-5---------------------------------------------|

(Verse)(Guitar)(Palm muted)
e|-------------------------------------------------------|
B|-------------------------------------------------------|
G|-------------6--6-----------------6--6-----------------|
D|-------7-7-7-6--6-4-4-4-4---7-7-7-6--6-4-4-4-4---------|
A|-------7-7-7-4--4-4-4-4-4---7-7-7-4--4-4-4-4-4---------|
E|-------5-5-5------2-2-2-2---5-5-5------2-2-2-2---------|
 |(Bass)                                                 |(Play this a few times)
e|-------------------------------------------------------|
B|-------------------------------------------------------|
G|-------------------------------------------------------|
D|-------------------------------------------------------|
A|-------------4--4-----------------4--4-----------------|
E|-------5-5-5------2-2-2-2---5-5-5------2-2-2-2--0-2-4--|

And then...

(Verse)(Guitar)(Palm muted)
e|----------------|
B|----------------|
G|---------6--6---|
D|---7-7-7-6--6-4-|
A|---7-7-7-4--4-4-|
E|---5-5-5------2-|
 |(Bass)          |
e|----------------|
B|----------------|
G|----------------|
D|----------------|
A|---------4--4---|
E|---5-5-5------2-|

Chorus is the same as the intro...

(Chorus)(Piano part for guitar)
e|-----------------------------------------|
B|-----------------------------------------|
G|----6-7-6------6-7-6----4-----4-5~-4-2---|x2
D|--7----------7---------5--7--5-----------|
A|-----------------------------------------|
E|-----------------------------------------|                                 
 |(Chorus)(Guitar)                          |
e|-----------------------------------------|
B|-----------------------------------------|
G|-------------7~-------8~------7~---------|
D|-7~----------7~-------8~------7~---------|x2
A|-7~----------5~-------6~------5~---------|
E|-5~--------------------------------------|
 |(Chorus)(Bass)(Varies slightly)           |
e|---------------------------------------------------------------------------|
B|---------------------------------------------------------------------------|
G|---------------------------------------------------------------------------|
D|---------------------------------------------------------------------------|x1
A|-------------5~-------6~------5~------------------2~/5~-------6~--------5~-|
E|-5~---------------------------------------5~-------------------------------|

(Chorus)(Piano part for guitar)
e|-------------------------------------------------------|
B|-------------------------------------------------------|
G|----------6-7-6------6-7-6--------4---------4-5~-4-2---|x2
D|--------7----------7-------------5--7------5-----------|
A|-------------------------------------------------------|
E|-------------------------------------------------------|                                 
 |(Chorus)(Guitar)                                       |
e|-------------------------------------------------------|
B|-------------------------------------------------------|
G|-------------------7-7----------8-8---------7-7--------|
D|-------7-7---------7-7----------8-8---------7-7--------|x2
A|-------7-7---------5-5----------6-6---------5-5--------|
E|-------5-5---------------------------------------------|
 |(Chorus)(Bass)                                         |
e|-------------------------------------------------------|
B|-------------------------------------------------------|
G|-------------------------------------------------------|
D|-------------------------------------------------------|x2
A|------------0-2-4-5-5-----0-2-4-6-6---0-2-4-5-5--------|
E|-0-2-4-5-5---------------------------------------------|


Second verse is the same as the first accept there is an added guitar lick that goes like this:
e|----------------------------|
B|----------------------------|
G|-9-9-9-11-9/-7-9-7/-6~------|
D|----------------------------|
A|----------------------------|
E|----------------------------|

Play chorus
Play verse(No guitar)
Play chorus

(Guitar Solo)(Everyone else plays the chorus)
e|-----------------------------------------------------------------------------------------------------------|
B|-12b14-12b14-12b14-12-12-10~------10~----10~-------12b14-12b14-12b14-12-12-10~----10~----10~-12b14br12-10~-|
G|------------------------------9h11---9h11----9hllp9---------------------------9h11---9h11------------------|
D|-----------------------------------------------------------------------------------------------------------|
A|-----------------------------------------------------------------------------------------------------------|
E|-----------------------------------------------------------------------------------------------------------|

For the outro just play the first part of the verse.


************************************

| /   slide up
| \   slide down
| h   hammer-on
| p   pull-off
| ~   vibrato
| +   harmonic
| x   Mute note
| b   Bend
| pb  Pre-bend
| br  Bend release
| pbr Pre-bend release
| brb Bend release bend

************************************
Добавлено: 21.06.2015
Вам также может быть интересно:
Другие материалы по этой песне:
  • Аккорды и текст

Страница создана 21.06.2015
http://primanota.ru/olivia-jean/mistakes-chords.htm
Привет, Гость.
Предлагаем пройти революционный курс по гитаре.
Подарок от PrimaNota.Ru, забирай!