PrimaNota.ru - самый крупный в мире бесплатный архив песенных текстов, аккордов, табулатур и нот


Oliver - Off On A Trek - таба, видео

Регистрация Запомнить меня
Войти через:  Facebook Google Twitter Vk Yandex Mail.ru

Oliver - Off On A Trek - таба, видео

Печатать
Просмотров: 88
Artist: Oliver
Song: Off on a trek
Album: Standing Stone (1974)
http://www.discogs.com/Oliver-Standing-Stone/master/339452

Quite fast playing for this song but the pattern makes it manageable for those of
us with less finger picking experience.

Standard tuning

|----------0-------------0----|
|------3-------------3--------|
|----2-------2-----2-------2--|
|-0------0------0------0------|
|-----------------------------|
|-----------------------------| x2

|----------0-------------0----|
|------3-------------3--------|
|----2-------2-----2-------2--|
|-0------0------0------0------|
|-----------------------------|
|-----------------------------|
 Off on a trek

|-----------------------0-------------0-------------0----|
|------3--3---------3-------------3-------------3--------|
|----0------0-----2-------2-----2-------2-----2-------2--|
|--------------0------0------0------0------0------0------|
|-3-----2------------------------------------------------|
|--------------------------------------------------------| x2
 I see the...

|----------0-------------0-------------0----|
|------3-------------3-------------3--------|
|----2-------2-----2-------2-----2-------2--|
|-0------0------0------0------0------0------|
|-------------------------------------------|
|-------------------------------------------|
                early night...

|-----------------------0-------------0----|
|------3--3---------3-------------3--------|
|----0------0-----2-------2-----2-------2--|
|--------------0------0------0------0------|
|-3-----2----------------------------------|
|------------------------------------------|
 ease my aching...            hold on

|-----------------------------|
|------3---3---------3---3----|
|----0-------0-----0-------0--|
|-----------------------------|
|-3------3------2------2------|
|-----------------------------|
 hold on, just time...

|----------0-------------0-------------0----|
|------3-------------3-------------3--------|
|----2-------2-----2-------2-----2-------2--|
|-0------0------0------0------0------0------|
|-------------------------------------------|
|-------------------------------------------|
 egg...

|-------------------------------------------|
|------3---3---------3---3---------3---3----|
|----0-------0-----0-------0-----0-------0--|
|-------------------------------------------|
|-3------3------2------2------2------2------|
|-------------------------------------------|
 soon be fine...

|-----------------------------|
|------3---3---------3---3----|
|----0-------0-----0-------0--|
|-----------------------------|
|-2------2------2------2------|
|-----------------------------|

|----------0-------------0----|
|------3-------------3--------|
|----2-------2-----2-------2--|
|-0------0------0------0------|
|-----------------------------|
|-----------------------------| x3
..bed

|----------0-------------0----|
|------3-------------3--------|
|----2-------2-----2-------2--|
|-0------0------0------0------|
|-----------------------------|
|-----------------------------|
 look there's a spider

|-----------------------------|
|------3---3---------3---3----|
|----0-------0-----0-------0--|
|-----------------------------|
|-3------3------2------2------|
|-----------------------------|
 spiralling 'round...

|----------0-------------0----|
|------3-------------3--------|
|----2-------2-----2-------2--|
|-0------0------0------0------|
|-----------------------------|
|-----------------------------|

|-----------------------------|
|------3---3---------3---3----|
|----0-------0-----0-------0--|
|-----------------------------|
|-3------3------2------2------|
|-----------------------------|
 shooting about...

|----------0-------------0----|
|------3-------------3--------|
|----2-------2-----2-------2--|
|-0------0------0------0------|
|-----------------------------|
|-----------------------------|

|-----------------------------|
|------3---3---------3---3----|
|----0-------0-----0-------0--|
|-----------------------------|
|-3------3------2------2------|
|-----------------------------|
 bitten my leg...

|----------0-------------0----|
|------3-------------3--------|
|----2-------2-----2-------2--|
|-0------0------0------0------|
|-----------------------------|
|-----------------------------| x2

|----------0-------------0----|
|------3-------------3--------|
|----2-------2-----2-------2--|
|-0------0------0------0------|
|-----------------------------|
|-----------------------------|
 early night...

|-----------------------0-------------0----|
|------3--3---------3-------------3--------|
|----0------0-----2-------2-----2-------2--|
|--------------0------0------0------0------|
|-3-----2----------------------------------|
|------------------------------------------|
 ease my aching...

|-------------------------------------------|
|------3---3---------3---3---------3---3----|
|----0-------0-----0-------0-----0-------0--|
|-------------------------------------------|
|-3------3------2------2------2------2------|
|-------------------------------------------|
 hold on, the desert's....

|-----------------------------|
|------3---3---------3---3----|
|----0-------0-----0-------0--|
|-----------------------------|
|-2------2------2------2------|
|-----------------------------|

|----------0-------------0----|
|------3-------------3--------|
|----2-------2-----2-------2--|
|-0------0------0------0------|
|-----------------------------|
|-----------------------------| x2
 dead...

|-------------------------0----|
|------3------3-------3--------|
|----0------0-------2-------2--|
|----------------0------0------|
|-3------2---------------------|
|------------------------------| x6

|---------------------|
|------3------3-3-----|
|----0------0---2-----|
|---------------0-----|
|-3------2------------|
|---------------------|
Добавлено: 01.11.2013
Вам также может быть интересно:
Другие материалы по этой песне:
  • Аккорды и текст

Страница создана 01.11.2013
http://primanota.ru/oliver/off-on-a-trek-chords.htm
Привет, Гость.
Предлагаем пройти революционный курс по гитаре.
Подарок от PrimaNota.Ru, забирай!