PrimaNota.ru - самый крупный в мире бесплатный архив песенных текстов, аккордов, табулатур и нот


Oliver Mtukudzi - Neria - таба, видео

Регистрация Запомнить меня
Войти через:  Facebook Google Twitter Vk Yandex Mail.ru

Oliver Mtukudzi - Neria - таба, видео

Печатать
Просмотров: 56
Tabbed by: WOODEN STRINGS
E-mail:itsmembau@gmail.com

Tuning: Standard, capo on 4  
I learned it by ear, might not be entirely accurate but its close. enjoy.
Cover: http://youtu.be/4HWgCP3ffSM,
Tutorial: http://youtu.be/XRi92i-v7dQ 
Major chords and progression (this is pretty much how the whole song goes)

C     G   Am  Em      
  neria   neria   ooo 
F        C              G        C
  usaore moyo  kaneria  mwari anewe 
F        C              G        C
  usaore moyo  kaneria  mwari anewe 
F           C           G        C
  mwari anewe kaneria   mwari anewe 


INTRO

e|--3---0-------0-|--------0---0-------0-|--------1-0----------0-|--------1--------------0------|
B|----1---3---0---|----------1---3---0---|-------------0h1---1---|----------3-0h1-----------1---|
G|----------0-----|------2---------0-----|------2----------0-----|------0--------------0------0-|
D|----------------|----2-----------------|----3------------------|----0------------0h2----------|
A|----------------|-0--------------------|--------------3--------|-------------3----------------|
E|----------------|----------------------|-1---------------------|-3----------------------------|


e|--------1-0-----------0-|--------1-----------3p0-----|--------1-0---------0-|--------0------------0-|
B|------------0h1----1----|----------3-0h1---------1p0-|------------0h1---1---|----------3-0h1----1---|
G|------2----------0------|------0---------------------|------2---------0-----|------0----------0-----|
D|----3-------------------|----0------------2----------|----3-----------------|----0------------------|
A|-------------3----------|-------------3--------------|-------------3--------|-------------3---------|
E|-1----------------------|-3--------------------------|-1--------------------|-3---------------------|


verse/ song progression

      neriaa                 neriaaa    oooo          usaore moyo kaneria              mwari anewe   
e|-------0-----------0-|-------0-----------0-----|-------1-----------0-----|--------0-------------0-----|
B|---------1-------3---|---------1-----------0---|---------1-----------1---|----------0-------------1---|
G|-----0-----0---------|-----2-----2-----0-----0-|-----2-----2-----0-----0-|------0-----0-------0-----0-|
D|---2-----------0-----|---2-----------2---------|---3-----------2---------|----0-----------0h2---------|
A|-3-------------------|-0-----------2-----------|-------------3-----------|--------------3-------------|
E|-------------3-------|-------------------------|-1-----------------------|-3--------------------------|



    usaore moyo kaneria            mwari anewe              mwari anewe kaneria       mwari anewe   
e|--------1-----------0-----|--------0---------3p0-----|--------1-----------0-----|--------0-----------0-|
B|----------1-----------1---|----------0-----------1p0-|----------1-----------1---|----------0-------1---|
G|------2-----2-----0-----0-|------0-----0-------------|------2-----2-----0-----0-|------0-----0---0-----|
D|----3-----------2---------|----0-----------2---------|----3-----------2---------|----0-----------------|
A|--------------3-----------|--------------3-----------|--------------3-----------|--------------3-------|
E|-1------------------------|-3------------------------|-1------------------------|-3--------------------|

************************************

| /   slide up
| \   slide down
| h   hammer-on
| p   pull-off
| ~   vibrato
| +   harmonic
| x   Mute note
| b   Bend
| pb  Pre-bend
| br  Bend release
| pbr Pre-bend release
| brb Bend release bend

************************************
Добавлено: 14.09.2015
Другие материалы по этой песне:

Страница создана 14.09.2015
http://primanota.ru/oliver-mtukudzi/neria-chords.htm
Привет, Гость.
Предлагаем пройти революционный курс по гитаре.
Подарок от PrimaNota.Ru, забирай!