PrimaNota.ru - самый крупный в мире бесплатный архив песенных текстов, аккордов, табулатур и нот


Oliver Hart - Step By Step - таба, видео

Регистрация Запомнить меня
Войти через:  Facebook Google Twitter Vk Yandex Mail.ru

Oliver Hart - Step By Step - таба, видео

Печатать
Просмотров: 84
Уроки эстрадного вокала в Санкт-Петербурге
-------------------------------------------------------------------------------
                           step by step - oliver hart
-------------------------------------------------------------------------------
Tabbed by:
E-mail:

Tuning:

e|-------------------5--3--1---------------------------------------------------|
B|---3-3--1/3--3--------------3------------------------------------------------|
G|---2-2-------2---------------------------------------------------------------|
D|0----0-------0---------------------------------------------------------------|
A|-----------------------------------------------------------------------------|
E|-----------------------------------------------------------------------------|

I'm not quite sure as I've only worked on it a little bit but it pretty close. Its just 
this over and over
up strokes soung better on the chords
suggestions are quite welcome.


************************************

| /   slide up
| \   slide down
| h   hammer-on
| p   pull-off
| ~   vibrato
| +   harmonic
| x   Mute note
| b   Bend
| pb  Pre-bend
| br  Bend release
| pbr Pre-bend release
| brb Bend release bend

************************************
Добавлено: 11.08.2015
Вам также может быть интересно:
Другие материалы по этой песне:
  • Аккорды и текст

Страница создана 11.08.2015
http://primanota.ru/oliver-hart/step-by-step-chords.htm
Привет, Гость.
Предлагаем пройти революционный курс по гитаре.
Подарок от PrimaNota.Ru, забирай!