PrimaNota.ru - самый крупный в мире бесплатный архив песенных текстов, аккордов, табулатур и нот


oleska and otter berry - Far Behind - таба, видео

Регистрация Запомнить меня
Войти через:  Facebook Google Twitter Vk Yandex Mail.ru

oleska and otter berry - Far Behind - таба, видео

Печатать
Просмотров: 83
Уроки эстрадного вокала в Санкт-Петербурге
---------------------------------------------------------------------------------------------------------------
                                          Artist - Oleska X Otter Berry 
                                         *******************************
                                         Song - Far Behind (Original Mix)
                                        **********************************
                                               Tabbed By - Ayreon77
                                              **********************
---------------------------------------------------------------------------------------------------------------
Tuning = Standard


01:02
SOLO
*****
e|--------|-----------------------|----------------|------11----|--s--------s-----------|
B|--------|---p--p---------s------|---p--p---------|---------13-|-9\11-13--9\11-9-------|
G|-10-~~~-|-13-12-10-12--12\13-13-|-13-12-10-13-12-|---12-------|-----------------12-10-|
D|--------|-----------------------|----------------|------------|-----------------------|
A|--------|-----------------------|----------------|------------|-----------------------|
E|--------|-----------------------|----------------|------------|-----------------------|


e|----------------------|-------------------------|--------------|
B|---p--p--------s------|---p--p------------------|-----h--------|
G|-13-12-10-12-12\13-13-|-13-12-10--13--12--10--8-|----8-10--s---|
D|----------------------|-------------------------|-10------8\10-|
A|----------------------|-------------------------|--------------|
E|----------------------|-------------------------|--------------|X3 And the last solo just do the same.
Добавлено: 21.06.2016
Другие материалы по этой песне:
  • Аккорды и текст

Страница создана 21.06.2016
http://primanota.ru/oleska-and-otter-berry/far-behind-chords.htm
Привет, Гость.
Предлагаем пройти революционный курс по гитаре.
Подарок от PrimaNota.Ru, забирай!